Your One-Stop Source For
Music Lyrics
Bass and Guitar Tabs
and More...
Music Lyrics Bass and Guitar Tabs

 

The Tabs Are Below

Learn To Read Tab
Chords Handbook
Corrections & Additions
Get Official Tab
Sum 41 tabs @ 911Tabs

Song: Intro (from the album Chuck)

Artist: Sum 41

Tabbed by: Dan Benz (DanSumthing@aol.com)

 

This here's the first track off of Sum 41's "Chuck" album.

It works as a lead in to the first real song, "No Reason",

and it has an interesting sound to it, so I decided to tab

it out. This song on the album is played with two guitars

and a piano, which plays chords. I have written the actual

chords being played in parentheses. These are the chords

that the piano or a guitar that has not been tuned down a

half step would play. Below these chords, I have included

the chords that you would play on a guitar that has been

tuned down.

 

Note:

If you'd like to hear a recording I made of this tab,

email me and I'll send you an MP3 of it. The quality is

less than great, but you can tell by listening to it

that the tab is accurate.

 

Tuning: 1/2 step down

 

{Guitar 1 (slight distortion for both guitars)

{ (Ebm) (B) (C#)

{ Em C D

{eb|--------------------------------------------------------|

{Bb|--------------------------------------------------------|

{Gb|---------------------------------9--9--9-------2--0-----|

{Db|-----9-10-9----------------------9--10-9-------0--0--4--|

{Ab|-7---7--7-7-------9----10--------7--7--7-------------5--|

{Eb|-0----------------0----0-----8--------------------------|

{

{Guitar 2

{eb|-----------------------------------------------2--------|

{Bb|---------------------------------3--5--3-------3-----3--|

{Gb|-----------------------------4-----------------2-----2--|

{Db|-----------------------------5-----------------0-----0--|

{Ab|-----------------------------3--------------------------|

{Eb|-0------------------------------------------------------|

 

 

{Guitar 1

{ (Ebm) (B) (C#)

{ Em C D

{eb|-----------------------------------------------------------|

{Bb|-----0-1-0-------0----0------------------------10---8--7---|

{Gb|-----0-2-0-------X----X--------9--9--9---------7----7--7---|

{Db|-2---2-2-2-------7----9--------9--10-9---------0----0--0---|

{Ab|-2---------------9----10-------7--7--7---------------------|

{Eb|-0---------------0----0----8-------------------------------|

{

{Guitar 2

{eb|-0---------------0-------------------------------------3---|

{Bb|-0---------------0-------------3-5-3-----------2-------2---|

{Gb|-0---------------0---------4-------------------3-------3---|

{Db|-2---------------2---------5-------------------0-------0---|

{Ab|-2---------------2---------3-------------------------------|

{Eb|-0---------------0-----------------------------------------|

 

Repeat all of the above, and this time add in

the parts written below where they are needed.

 

Guitar 3 (Clean)

eb|------------------------------|-----------------------------|

Bb|------------------------------|-----------12----------------|

Gb|-----------9-11-9-11b12r11----|----9/12------12-------------|

Db|---9-10-12--------------------|-----------------9-----------|

Ab|------------------------------|-----------------------------|

Eb|------------------------------|-----------------------------|

 

eb|---------------------|--------------------------------------|

Bb|---------------------|-------------9-11-9-11b12r11----------|

Gb|-12\11/12---12/14----|-----9-10-12--------------------------|

Db|---------------------|--------------------------------------|

Ab|---------------------|--------------------------------------|

Eb|---------------------|--------------------------------------|

 

eb|---------------------|--------------------------------------|

Bb|-------12------------|-----12\11/12---12/14-----------------|

Gb|-9/12-----12---------|--------------------------------------|

Db|-------------9-------|--------------------------------------|

Ab|---------------------|--------------------------------------|

Eb|---------------------|--------------------------------------|

 

End of song

 

 

Return to my Sum 41 tabs page

The Tablature is Copyright its respective owners.

Sign Up For My Newsletter
Subscribe | Unsubscribe

Site Map | Disclaimer | Privacy Policy | Media Kit | Submissions/Corrections

Website © 2000-2014 mattsmusicpage.com. All rights reserved.

Legal & DMCA: Matt's Music Page has been providing lyrics and tabs in a legal way, paying royalties each year to a few organizations. Then, all lyrics and tabs were removed from the site. Now, there's a new owner to the site, which purchased it August 26, 2014, and he is in negotiation to obtain licensing from BMI at the moment. If you have a specific DMCA request -- please do not hesitate to contact me via the contact button on top. I will do my very best to keep this site fully legal.

Get our toolbar!

 

VINTAGE SORRENTO MUSIC JEWELRY BOX
$45.0
VINTAGE SORRENTO MUSIC JEWELRY BOX picture


VINTAGE LACQUERED MUSIC BOX JAPAN
$25.99
VINTAGE LACQUERED MUSIC BOX JAPAN picture


Vintage Kehlsteinhaus Bavaria Germany Colorscope Cow Bell View Master Music Box
$8.99
Vintage Kehlsteinhaus Bavaria Germany Colorscope Cow Bell View Master Music Box picture


VINTAGE SCHMIDT Signed Collectible Musical Turning Clown
$9.99
VINTAGE  SCHMIDT Signed Collectible Musical Turning Clown picture


Vintage - Linen - Postcard - Stage - Radio City Music Hall - New York City
$3.75
Vintage - Linen - Postcard - Stage - Radio City Music Hall - New York City   picture