Your One-Stop Source For
Music Lyrics
Bass and Guitar Tabs
and More...
Music Lyrics Bass and Guitar Tabs

 

The Tabs Are Below

Learn To Read Tab
Chords Handbook
Corrections & Additions
Get Official Tab
Staind tabs @ 911Tabs

Staind - Excess Baggage Guitar tab

tuning: drop half a step (eb, ab, db, gb, bb, eb)

 

intro/verse

 

#1 #2

e|----------------{x4}-{----------------{x4}-|

b|---------------------{---------------------|

g|------------0--------{------------0--------|

d|---------4-----4-----{---------4-----4-----|

a|------2-----------2--{------2-----------2--|

e|---0-----------------{---3-----------------|

 

 

chorus - play twice togethere

 

#3 #4

e|----------------{x2}-{----------------{x2}-|

b|------------0--------{------------0--------|

g|---------2-----2-----{---------0-----0-----|

d|------2-----------2--{------2-----------2--|

a|---0-----------------{---3-----------------|

e|---------------------{---------------------|

 

 

lyrics: corded verse order

 

aaron plays #1 & #2 togethere before he starts singing.

 

well i know the words

but i can’t really speak them #1

----------------------------------------------------

to you #2

----------------------------------------------------

and i hide all the pain

that i’ve gained in my wisdom #1

----------------------------------------------------

from you #2

----------------------------------------------------

and i’m eatin alive #1

by what i hold inside

----------------------------------------------------

all the things that i live with #2

i can’t easily hide

----------------------------------------------------

 

chorus:

and i’m left here with nothing

nothing to live for #1

----------------------------------------------------

but you #2

----------------------------------------------------

its not easy to hide

all this damage inside both #3 & #4

----------------------------------------------------

and i’ll carry you with me both #3 & #4

untill i’m not alive

----------------------------------------------------

(gap between chorus and next verse) #1

----------------------------------------------------

 

when you look at my face

does it seem just as ugly #2

----------------------------------------------------

to you #1

----------------------------------------------------

and i can’t seem to erase

all the scars that i have live with #2

----------------------------------------------------

from you #1

----------------------------------------------------

i’m so sick of this place

and this taste in my mouth #2

----------------------------------------------------

‘cause of you i can’t figure #1

what i’m all about

----------------------------------------------------

(gap between verse and last chorus) #2

----------------------------------------------------

chorus:

and i’m left here with nothing

nothing to live for #1

----------------------------------------------------

but you #2

----------------------------------------------------

its not easy to hide

all this damage inside both #3 & #4

----------------------------------------------------

and i’ll carry you with me both #3 & #4

untill i’m not alive

----------------------------------------------------

(last bit of the song) #1

 

note: when on the last bit of the song aaron hits the low e string for the last note.

that's the thump that u hear in the end of the song.

Return to my Staind tabs page

The Tablature is Copyright its respective owners.

Sign Up For My Newsletter
Subscribe | Unsubscribe

Site Map | Disclaimer | Privacy Policy | Media Kit | Submissions/Corrections

Website © 2000-2014 mattsmusicpage.com. All rights reserved.

Legal & DMCA: Matt's Music Page has been providing lyrics and tabs in a legal way, paying royalties each year to a few organizations. Then, all lyrics and tabs were removed from the site. Now, there's a new owner to the site, which purchased it August 26, 2014, and he is in negotiation to obtain licensing from BMI at the moment. If you have a specific DMCA request -- please do not hesitate to contact me via the contact button on top. I will do my very best to keep this site fully legal.

Get our toolbar!