Your One-Stop Source For
Music Lyrics
Bass and Guitar Tabs
and More...
Music Lyrics Bass and Guitar Tabs

 

The Tabs Are Below

Learn To Read Tab
Chords Handbook
Corrections & Additions
Get Official Tab
Staind tabs @ 911Tabs

Song:Home

Artist:Staind

Album:Dysfunction

Tabbed by:ed gein's bitch(TapRoach4342@aol.com)

not sure if it's exactly right but it's close

x4

G|--------------

D|--------------

A|-0------------

E|--3-2-1--1-3

 

x1

G|---------

D|---------

A|-1-1-----

E|----3-2-2

X4

G|-------------------------

D|---5-3--3----------------

A|-------5-5-3--2----------

E|-3-----------------5-4-3-

 

X4

G|----------2-

D|-3-333/5-5--

A|------------

E|------------

 

X4

G|-------------------------

D|---5-3--3----------------

A|-------5-5-3--2----------

E|-3-----------------5-4-3-

 

X4

G|----------2-

D|-3-333/5-5--

A|------------

E|------------

 

X4

G|-----------------------------

D|-----------------------------

A|---------------------------4-

E|-7--5-6-7--5-7---7--5-6-7----

 

X6

G|-------

D|-------

A|-----3-

E|-55-5--

 

X6

G|----------2-

D|-3-333/5-5--

A|------------

E|------------

 

Return to my Staind bass tabs page

The Tablature is Copyright its respective owners.

Sign Up For My Newsletter
Subscribe | Unsubscribe

Site Map | Disclaimer | Privacy Policy | Media Kit | Submissions/Corrections

Website © 2000-2014 mattsmusicpage.com. All rights reserved.

Legal & DMCA: Matt's Music Page has been providing lyrics and tabs in a legal way, paying royalties each year to a few organizations. Then, all lyrics and tabs were removed from the site. Now, there's a new owner to the site, which purchased it August 26, 2014, and he is in negotiation to obtain licensing from BMI at the moment. If you have a specific DMCA request -- please do not hesitate to contact me via the contact button on top. I will do my very best to keep this site fully legal.

Get our toolbar!