Your One-Stop Source For
Music Lyrics
Bass and Guitar Tabs
and More...
>Music Lyrics Bass and Guitar Tabs

 

The Tabs Are Below

Learn To Read Tab
Chords Handbook
Corrections & Additions
Get Official Tab
Soundgarden tabs @ 911Tabs

Searching With My Good Eye Closed

Soundgarden

 

 

Intro: Repeat 8 times(fade in)

B||-------||-----------------------------||

G||--0-5--||o--7----7---7---7---7--0-5--o||

D||--0-0--||o--0--0---0---0---0----0-0--o||

A||-------||-----------------------------||

 

Then play this along with riff 1:

 

B||-------||------------------------------||

G||--0-5--||o--7/-11----0-5-11\-7---0-5--o||

D||--0-0--||o--0--0-----0-0-0---0---0-0--o||

A||-------||------------------------------||

 

Then play this riff with riff 1 too:

 

B||-------||-------------------------------------||

G||--0-5--||o--7--7--7--10-10-10-10-10-10-0-5---o||

D||--0-0--||o--0--0--0--0--0--0--0--0--0--0-0---o||

A||-------||-------------------------------------||

 

At "...and the devil says..." part go down the G string and then play the

[A] octave on the open string and 7th fret.

 

|-7-7-7-7-7-7-7-7-7-7-7-7-2--2--|

|-0-0-0-0-0-0-0-0-0-0-0-0-0--0--|

 

Verse Riff 1:

D||----------------------------|----------------------------||

A||-0h2-2-2-2-2-0-5br--2-2-2-0-|-0h2-2-2-2-2-0-5br--2-2-2-0-||

B||-0-0-0-0-0-0-0-0----0-0-0-0-|-0-0-0-0-0-0-0-0----0-0-0-0-||

 

Chorus Riff: (to the sky...and down...)

Play 4 times

||--------------------||--------------------------|

||--------------------||----------------------3b--|

||o------------------o||------9-------------------|

||o-2/-4-4-4-4-4-4-4-o||-7/-9-9-------------------|

||--0h-2-2-2-2-2-2-2--||-5/-7-7-------------------|

||--0--0-0-0-0-0-0-0--||-------------3b-0---------|

 

|-------------------------------------------------|

|----------------------------------------------3b-|

|-------2-------4-------2-------------------------|

|-----2-----2-------2-------2---------------------|

|---0---------0-------0-------0-------------------|

|-5-----------------------------5br----3b-0-------|

 

2nd Verse Riff: (Gtr. 2) Play 8 times End on this 8th time

||---------------------------------------|| ---------------------

||---------------------------------------|| -------5b--\---------

||o-1h2p1-1h2/4~~-2h4p2-4br~~--2h4p2~~--o|| -2h4p2---------------

||o-------------------------------------o|| ---------------------

||---------------------------------------|| ---------------------

||---------------------------------------|| ---------------------

 

 

Interlude

||-------------------------|-----------------------------------||

||-------------------------|-----------------------------------||

||o------------------------|----------------------------------o||

||o------------------------|----------------------------------o||

||---7h9-9--9-7h9p7-7-6-6--|-4h6p4--4--2--2---4h6p4--4--2--2---||

||-------------------------|-----------------------------------||

 

Play 4 times

||---------------------------------***--------||

||--------------------------------(5br)~~~~---||

||o-1h2p1-1h2/4~~-2h4p2-4br~~--2h4p2~~-------o||

||o------------------------------------------o||

||--------------------------------------------||

||--------------------------------------------||

 

*** Last time substitutute this note.

 

Bridge:(breakdown)

E||---0-5-7---7---7---7---7----||-0-5-7/-11-----0-5-11\-7-----||

B||---0-0-0-0---0---0---0---0--||-0-0-0---0-----0-0--0--0-----||

G||o--------------------------o||o---------------------------o||

D||o--------------------------o||o---------------------------o||

A||----------------------------||-----------------------------||

B||----------------------------||-----------------------------||

 

(But I'm on my way....on my way...)

||--0-5-7-7-7-7-7-10-10-10-10-10-10--||

||--0-0-0-0-0-0-0--0--0--0--0--0--0--||

||o---------------------------------o||

||o---------------------------------o||

||-----------------------------------||

||-----------------------------------||

 

Then play the first bar in the chorus over and over again until the end with

a guitar soloing over it.

 

 

SEARCHING WITH MY GOOD EYE CLOSED

 

Painted blue across my eyes

And tie the linen on

And I'm on my way

Looking for the paradigm

So I can pass it off

Is it on my side

 

Is it to the sky

Looking to the sky and down

Searching for a ground

With my good eye closed

 

If I took you for a ride

Would you take it wrong

Or would you make it right

Looking for a pedestal

That I can put you on

And be on my way

 

Is it to the sky

Looking to the sky and down

Searching for a ground

With my good eye closed

 

Stop you're trying to bruise my mind

I can do it on my own

Stop you're trying to kill my time

It's been my death since I was born

I don't remember half the time

If I'm hiding or I'm lost

But I'm on my way

 

Return to my to my Soundgarden tabs page

The Tablature is Copyright its respective owners.

Sign Up For My Newsletter
Subscribe | Unsubscribe

Site Map | Disclaimer | Privacy Policy | Media Kit | Submissions/Corrections

Website © 2000-2014 mattsmusicpage.com. All rights reserved.

Legal & DMCA: Matt's Music Page has been providing lyrics and tabs in a legal way, paying royalties each year to a few organizations. Then, all lyrics and tabs were removed from the site. Now, there's a new owner to the site, which purchased it August 26, 2014, and he is in negotiation to obtain licensing from BMI at the moment. If you have a specific DMCA request -- please do not hesitate to contact me via the contact button on top. I will do my very best to keep this site fully legal.

Get our toolbar!

 

ROLLING STONES,SET OF 2 VTG RARE 1970's PINBACK BUTTON BADGES
$11.99
ROLLING STONES,SET OF 2 VTG RARE 1970's PINBACK BUTTON BADGES picture


OLD LARGE HISTORIC PHOTO OF THE ROLLING STONES, MICK JAGGER etc c1962
$5.74
OLD LARGE HISTORIC PHOTO OF THE ROLLING STONES, MICK JAGGER etc c1962 picture


V12410 Australia Avant Card #12410 Rolling Stones Shine A Light postcard
$0.77
V12410 Australia Avant Card #12410 Rolling Stones Shine A Light postcard picture


The ROLLING STONES 1989 ROCK N ROLL Comics #1~Hard to Find-NM Condition 4th Prt
$19.99
The ROLLING STONES 1989 ROCK N ROLL Comics #1~Hard to Find-NM Condition 4th Prt picture


OLD LARGE HISTORIC PHOTO OF THE ROLLING STONES, MICK JAGGER etc c1962
$5.74
OLD LARGE HISTORIC PHOTO OF THE ROLLING STONES, MICK JAGGER etc c1962 picture