Your One-Stop Source For
Music Lyrics
Bass and Guitar Tabs
and More...
Music Lyrics Bass and Guitar Tabs

 

The Tabs Are Below

Learn To Read Tab
Chords Handbook
Corrections & Additions
Get Official Tab
Soundgarden tabs @ 911Tabs

Loud Love

Soundgarden

 

 

\ =Slide Down

/ =Slide Up

^ =Bend

 

Intro:

e---------------------------------------------------------|

B---15--/17--/18--\17--\13--/17--/18--\17--\13--/17--/18--|

G---------------------------------------------------------|

D---------------------------------------------------------|

A---------------------------------------------------------|

E---------------------------------------------------------|

 

e---------------------------------------------------------|

B--\17--\13--/17--/18--\17--\13--/17--/18--\17--\15--(15)-|

G---------------------------------------------------------|

D---------------------------------------------------------|

A---------------------------------------------------------|

E---------------------------------------------------------|

 

Main Riff:

e-------------------------------------|

B-------------------------------------|

G-------------------------------------|

D------7--------------------------5^--|

A----5-----5--7---4--7---5--7---7-----|

E--O-----O------O------O------O-------|

 

Post Chorus:

e-------------------------------------|

B-------------------------------------|

G-------------5-------------------7^--|

D--7----5--7--5--7---5---7--5--7--7^--|

A--7----5--7--3--7---5---7--5--7--5^--|

E--5----3--5-----5---3---5--3--5------|

 

Verse 1: There's No Time To Keep It Low

I've been Deaf now I Want Noise

You Stay Down

But I Wont be Quiet

I'll Hammer On Until You Fight

Chorus: Loud Love

Loud Love

Loud Love

Loud Love

 

Verse 2: If You've Got Some Time To Kill

Slow Resistance Wins The War

Well I Know

But That's No Way to Go

You Can't Resist The Louder Pull

 

Post: You Can't Resist The Louder Pull

 

Verse 3: Well That's Right

I Want Something To Explode

I've Been Deaf

Now I want Noise

 

Return to my to my Soundgarden tabs page

The Tablature is Copyright its respective owners.

Sign Up For My Newsletter
Subscribe | Unsubscribe

Site Map | Disclaimer | Privacy Policy | Media Kit | Submissions/Corrections

Website © 2000-2014 mattsmusicpage.com. All rights reserved.

Legal & DMCA: Matt's Music Page has been providing lyrics and tabs in a legal way, paying royalties each year to a few organizations. Then, all lyrics and tabs were removed from the site. Now, there's a new owner to the site, which purchased it August 26, 2014, and he is in negotiation to obtain licensing from BMI at the moment. If you have a specific DMCA request -- please do not hesitate to contact me via the contact button on top. I will do my very best to keep this site fully legal.

Get our toolbar!