Your One-Stop Source For
Music Lyrics
Bass and Guitar Tabs
and More...
Music Lyrics Bass and Guitar Tabs

 

The Tabs Are Below

Learn To Read Tab
Chords Handbook
Corrections & Additions
Get Official Tab
Pearl Jam tabs @ 911Tabs

 

Author/Artist: Pearl Jam

Title: No Way

Album: Yield

Transcribed by: Richard van Wingerden

Email: Richard.van.Wingerden@cmg.nl

 

Stone dropped-D,

Mike standard,

guitar 1,2,3 and 4 also standard.

Comments welcome.

Last updated 03/10/1999

Ros.

 

 

 

 

 

 

-|-----------|----------------------------------------------------------------

-|-----------|----------------------------------------------------------------

-|-----------|----------------------------------------------------------------

-|-----------|----------------------------------------------------------------

-|--7h9--0---|----------------------------------------------------------------

-|-----------|----------------------------------------------------------------

stone

 

-|------------------------------------|------------------------------------|--

-|------------------------------------|------------------------------------|--

-|------------------------------------|------------------------------------|--

-|------------------------------------|------------------------------------|--

-|-9-9h11-9h11--9--0h5-5-5-5-5-5-5/7/-|-9-9h11-9h11--9--0h5-5-5-5-5-5-5/7/-|--

-|-9-9----9-----9--0h5-5-5-5-5-5-5/7/-|-9-9----9-----9--0h5-5-5-5-5-5-5/7/-|--

 

 

-|------------------------------------|------------------------------------|--

-|------------------------------------|------------------------------------|--

-|------------------------------------|------------------------------------|--

-|------------------------------------|------------------------------------|--

-|-9-9h11-9h11--9--0h5-5-5-5-5-5-5/7/-|-9-9h11-9h11--9--0h5-5-5-5-5-5-5/7/-|--

-|-9-9----9-----9--0h5-5-5-5-5-5-5/7/-|-9-9----9-----9--0h5-5-5-5-5-5-5/7/-|--

 

 

-|------------------------------------|------------------------------------|--

-|------------------------------------|------------------------------------|--

-|------------------------------------|------------------------------------|--

-|------------------------------------|------------------------------------|--

-|-9-9h11-9h11--9--0h5-5-5-5-5-5-5/7/-|-9-9h11-9h11--9--0h5-5-5-5-5-5-5/7/-|--

-|-9-9----9-----9--0h5-5-5-5-5-5-5/7/-|-9-9----9-----9--0h5-5-5-5-5-5-5/7/-|--

there's a to-ken (with fill 1) of my o-penness

 

-|------------------------------------|------------------------------------|--

-|------------------------------------|------------------------------------|--

-|------------------------------------|------------------------------------|--

-|------------------------------------|------------------------------------|--

-|-9-9h11-9h11--9--0h5-5-5-5-5-5-5/7/-|-9-9h11-9h11--9--0h5-5-5-5-5-5-5/7/-|--

-|-9-9----9-----9--0h5-5-5-5-5-5-5/7/-|-9-9----9-----9--0h5-5-5-5-5-5-5/7/-|--

of my need to not dis - appear

 

-|------------------------------------|------------------------------------|--

-|------------------------------------|------------------------------------|--

-|------------------------------------|------------------------------------|--

-|------------------------------------|------------------------------------|--

-|-9-9h11-9h11--9--0h5-5-5-5-5-5-5/7/-|-9-9h11-9h11--9--0h5-5-5-5-5-5-5/7/-|--

-|-9-9----9-----9--0h5-5-5-5-5-5-5/7/-|-9-9----9-----9--0h5-5-5-5-5-5-5/7/-|--

how I'm feeling is so re-vealing

 

-|------------------------------------|------------------------------------|--

-|------------------------------------|------------------------------------|--

-|------------------------------------|------------------------------------|--

-|------------------------------------|------------------------------------|--

-|-9-9h11-9h11--9--0h5-5-5-5-5-5-5/7/-|-9-9h11-9h11--9--0h5-5-5-5-5-5-5/7/-|--

-|-9-9----9-----9--0h5-5-5-5-5-5-5/7/-|-9-9----9-----9--0h5-5-5-5-5-5-5/7/-|--

to me I've found my mind to clear

 

-|------------------------------------|------------------------------------|--

-|------------------------------------|------------------------------------|--

-|------------------------------------|------------------------------------|--

-|------------------------------------|------------------------------------|--

-|-9-9h11-9h11--9--0h5-5-5-5-5-5-5/7/-|-9-9h11-9h11--9--0h5-5-5-5-5-5-5/7/-|--

-|-9-9----9-----9--0h5-5-5-5-5-5-5/7/-|-9-9----9-----9--0h5-5-5-5-5-5-5/7/-|--

I just need (with fill 2) someone to be there for

 

-|------------------------------------|------------------------------------|--

-|------------------------------------|------------------------------------|--

-|------------------------------------|------------------------------------|--

-|------------------------------------|------------------------------------|--

-|-9-9h11-9h11--9--0h5-5-5-5-5-5-5/7/-|-9-9h11-9h11--9--0h5-5-5-5-5-5-5/7/-|--

-|-9-9----9-----9--0h5-5-5-5-5-5-5/7/-|-9-9----9-----9--0h5-5-5-5-5-5-5/7/-|--

me

 

-|------------------------------------|------------------------------------|--

-|------------------------------------|------------------------------------|--

-|------------------------------------|------------------------------------|--

-|------------------------------------|------------------------------------|--

-|-9-9h11-9h11--9--0h5-5-5-5-5-5-5/7/-|-9-9h11-9h11--9--0h5-5-5-5-5-5-5/7/-|--

-|-9-9----9-----9--0h5-5-5-5-5-5-5/7/-|-9-9----9-----9--0h5-5-5-5-5-5-5/7/-|--

I just want someone to be there for

 

-|------------------------------------|------------------------------------|--

-|------------------------------------|------------------------------------|--

-|------------------------------------|------------------------------------|--

-|------------------------------------|------------------------------------|--

-|-9-9h11-9h11--9--0h5-5-5-5-5-5-5/7/-|-9-9h11-9h11--9--0h5-5-5-5-5-5-5/7/-|--

-|-9-9----9-----9--0h5-5-5-5-5-5-5/7/-|-9-9----9-----9--0h5-5-5-5-5-5-5/7/-|--

me

 

-|------------------------------------|------------------------------------|--

-|------------------------------------|------------------------------------|--

-|------------------------------------|------------------------------------|--

-|------------------------------------|------------------------------------|--

-|-9-9h11-9h11--9--0h5-5-5-5-5-5-5/7/-|-9-9h11-9h11--9--0h5-5-5-5-5-5-5/7/-|--

-|-9-9----9-----9--0h5-5-5-5-5-5-5/7/-|-9-9----9-----9--0h5-5-5-5-5-5-5/7/-|--

all the static in my attic-a

 

-|------------------------------------|------------------------------------|--

-|------------------------------------|------------------------------------|--

-|------------------------------------|------------------------------------|--

-|------------------------------------|------------------------------------|--

-|-9-9h11-9h11--9--0h5-5-5-5-5-5-5/7/-|-9-9h11-9h11--9--0h5-5-5-5-5-5-5/7/-|--

-|-9-9----9-----9--0h5-5-5-5-5-5-5/7/-|-9-9----9-----9--0h5-5-5-5-5-5-5/7/-|--

shoots down my sciatic nerve (with fill 3)

 

-|------------------------------------|------------------------------------|--

-|------------------------------------|------------------------------------|--

-|------------------------------------|------------------------------------|--

-|------------------------------------|------------------------------------|--

-|-9-9h11-9h11--9--0h5-5-5-5-5-5-5/7/-|-9-9h11-9h11--9--0h5-5-5-5-5-5-5/7/-|--

-|-9-9----9-----9--0h5-5-5-5-5-5-5/7/-|-9-9----9-----9--0h5-5-5-5-5-5-5/7/-|--

to the ocean of my platitudes (with fill 4)

 

-|------------------------------------|------------------------------------|--

-|------------------------------------|------------------------------------|--

-|------------------------------------|------------------------------------|--

-|------------------------------------|------------------------------------|--

-|-9-9h11-9h11--9--0h5-5-5-5-5-5-5/7/-|-9-9h11-9h11--9--0h5-5-5-5-5-5-5/7/-|--

-|-9-9----9-----9--0h5-5-5-5-5-5-5/7/-|-9-9----9-----9--0h5-5-5-5-5-5-5/7/-|--

longtitudes, latitudes it's so absurd

 

-|------------------------------------|------------------------------------|--

-|------------------------------------|------------------------------------|--

-|------------------------------------|------------------------------------|--

-|------------------------------------|------------------------------------|--

-|-9-9h11-9h11--9--0h5-5-5-5-5-5-5/7/-|-9-9h11-9h11--9--0h5-5-5-5-5-5-5/7/-|--

-|-9-9----9-----9--0h5-5-5-5-5-5-5/7/-|-9-9----1-----9--0h5-5-5-5-5-5-5/7/-|--

I just need (with fill 5) someone to be there for

 

-|------------------------------------|------------------------------------|--

-|------------------------------------|------------------------------------|--

-|------------------------------------|------------------------------------|--

-|------------------------------------|------------------------------------|--

-|-9-9h11-9h11--9--0h5-5-5-5-5-5-5/7/-|-9-9h11-9h11--9--0h5-5-5-5-5-5-5/7/-|--

-|-9-9----9-----9--0h5-5-5-5-5-5-5/7/-|-9-9----9-----9--0h5-5-5-5-5-5-5/7/-|--

anyone

 

-|------------------------------------|------------------------------------|--

-|------------------------------------|------------------------------------|--

-|------------------------------------|------------------------------------|--

-|------------------------------------|------------------------------------|--

-|-9-9h11-9h11--9--0h5-5-5-5-5-5-5/7/-|-9-9h11-9h11--9--0h5-5-5-5-5-5-5/7/-|--

-|-9-9----9-----9--0h5-5-5-5-5-5-5/7/-|-9-9----9-----9--0h5-5-5-5-5-5-5/7/-|--

I just want someone to be there for

 

-|------------------------------------|------------------------------------|--

-|------------------------------------|------------------------------------|--

-|------------------------------------|------------------------------------|--

-|------------------------------------|------------------------------------|--

-|-9-9h11-9h11--9--0h5-5-5-5-5-5-5/7/-|-9-9h11-9h11--9--0h5-5-5-5-5-5-5/7--|--

-|-9-9----9-----9--0h5-5-5-5-5-5-5/7/-|-9-9----9-----9--0h5-5-5-5-5-5-5/7/-|--

someone to be there for mmmmmm... (end fill 5) d

 

-|------------------------------------|------------------------------------|--

-|--12--------------------------------|------------------------------------|--

-|------------------------------------|------------------------------------|--

-|------------------------------------|------------------------------------|--

-|------------------------------------|------------------------------------|--

-|------------------------------------|------------------------------------|--

fill 1, mike (let ring for 4 bars)

 

-|------------------------------------|------------------------------------|--

-|------------------------------------|------------------------------------|--

-|------------------------------------|------------------------------------|--

-|------------------------------------|------------------------------------|--

-|------------------------------------|------------------------------------|--

-|------------------------------------|------------------------------------|--

end fill 1

 

-|------------------------------------|------------------------------------|--

-|-7---------------10--------8--------|-7----------------10-------8--------|--

-|------------------------------------|------------------------------------|--

-|------------------------------------|------------------------------------|--

-|------------------------------------|------------------------------------|--

-|------------------------------------|------------------------------------|--

fill 2, mike, fade in, all notes with volume swell

 

-|------------------------------------|------------------------------------|--

-|-7---------------10--------8--------|-7----------------------------------|--

-|------------------------------------|------------------------------------|--

-|------------------------------------|------------------------------------|--

-|------------------------------------|------------------------------------|--

-|------------------------------------|------------------------------------|--

 

 

-|------------------------------------|---------------------------7--------|--

-|-7---------------10--------8--------|-7-----------------------------8----|--

-|------------------------------------|------------------------------------|--

-|------------------------------------|------------------------------------|--

-|------------------------------------|------------------------------------|--

-|------------------------------------|------------------------------------|--

 

 

-|------------------------------------|------------------------------------|--

-|-7---------------10--------8--------|-7----------------------------------|--

-|------------------------------------|------------------------------------|--

-|------------------------------------|------------------------------------|--

-|------------------------------------|------------------------------------|--

-|------------------------------------|------------------------------------|--

end fill 2

 

-|---------------------------7--------|------------------------------------|--

-|------------------------------------|------------------------------------|--

-|------------------8----9------------|------------------------------------|--

-|------------------------------------|------------------------------------|--

-|------------------------------------|------------------------------------|--

-|------------------------------------|------------------------------------|--

fill 3, mike (with volume swell) let ring end fill 3

 

-|------------------------------------|------------------------------------|--

-|------------------------------------|------------------------------------|--

-|------------------8----9------------|------------------------------------|--

-|------------------------------------|------------------------------------|--

-|------------------------------------|------------------------------------|--

-|------------------------------------|------------------------------------|--

fill 4, mike (with volume swell) end fill 4

 

-|-------12---------------------------|------------------------------------|--

-|-x--x------------x-x-x-x--12-12-----|------------------/8v-----------/8--|--

-|-x--x----9/11----x-x-x-x------------|------------------------------------|--

-|-x--x------------x-x-x-x------------|----------5---x---------------------|--

-|------------------------------------|--------5---5-x---------------------|--

-|------------------------------------|-/--/---*---------------------------|--

fill 5, mike (with guitar 3) p.m.

 

-|------------------------------------|------------------------------------|--

-|-xx------xx------xx------xx---------|-xx------xx------xx------xx---------|--

-|-xx------xx------xx------xx---------|-xx------xx------xx------xx---------|--

-|-xx------xx------xx------xx---------|-xx------xx------xx------xx---------|--

-|------------------------------------|------------------------------------|--

-|------------------------------------|------------------------------------|--

fill 5, guitar 3, with wah

 

-|------------------------------------|------------------------------------|--

-|-7----------------------------------|------------------------------------|--

-|-------------7--7h9-b-11------------|--11v-------------------------------|--

-|------------------------------------|------------------------------------|--

-|------------------------------------|----------------------------/10-10\-|--

-|------------------------------------|------------------------------------|--

mike slow bend slow bend

 

-|------------------------------------|------------------------------------|--

-|-xx------xx------xx------xx---------|-xx------xx------xx------xx---------|--

-|-xx------xx------xx------xx---------|-xx------xx------xx------xx---------|--

-|-xx------xx------xx------xx---------|-xx------xx------xx------xx---------|--

-|------------------------------------|------------------------------------|--

-|------------------------------------|------------------------------------|--

guitar 3

 

-|------------------------------------|------------------------------------|--

-|-----------------12v----\-----------|------------------------------------|--

-|-------------------------------/12--|------------12-11v-----------\---7--|--

-|------------------------------------|---------0--------------------------|--

-|------------------------------------|------------------------------------|--

-|------------------------------------|------------------------------------|--

mike short

 

-|------------------------------------|------------------------------------|--

-|-xx------xx------xx------xx---------|-xx------xx------xx------xx---------|--

-|-xx------xx------xx------xx---------|-xx------xx------xx------xx---------|--

-|-xx------xx------xx------xx---------|-xx------xx------xx------xx---------|--

-|------------------------------------|------------------------------------|--

-|------------------------------------|------------------------------------|--

guitar 3

 

-|------------------------------------|------------------------------------|--

-|------------------------------------|------------------------------------|--

-|-7-9-9b11r9--7v---------------------|------------------------------------|--

-|-----------------------9--7----7h9--|-v--v--v--v--v--\-------------------|--

-|------------------------------------|------------------------------------|--

-|------------------------------------|------------------------------------|--

mike let ring slide down end fill 5

 

-|------------------------------------|------------------------------------|--

-|-xx------xx------xx------xx---------|-xx----------------3-----xx---------|--

-|-xx------xx------xx------xx---------|-xx--------4-----4-------xx---------|--

-|-xx------xx------xx------xx---------|-xx------5--------------------------|--

-|------------------------------------|-------------5----------------------|--

-|------------------------------------|------------------------------------|--

guitar 3 end fill 5

 

-|------------------------------------|------------------------------------|--

-|------------------------------------|------------------------------------|--

-|------------------------------------|------------------------------------|--

-|------------------------------------|------------------------------------|--

-|-9-9h11-9h11--9--0h5-5-5-5-5-5-5/7/-|-9-9h11-9h11--9--0h5-5-5-5-5-5-5/7/-|--

-|-9-9----9-----9--0h5-5-5-5-5-5-5/7/-|-9-9----9-----9--0h5-5-5-5-5-5-5/7/-|--

cos I'll stop trying to make a diff.. I'm not trying to make a difference

 

-|--------------7---------------------|--------------7---------------------|--

-|------------------------------------|---------------8----------8-8-------|--

-|---------------7vvv-----------------|---------------7----------7-7-------|--

-|-9-9----xx----------------------7b-0|-9-9----9-----------------------7b-0|--

-|-9-9----xx--------------------------|-9-9----9---------------------------|--

-|-7-7----xx--------------------------|-7-7----7---------------------------|--

chorus mike quart quart

 

-|------------------------------------|------------------------------------|--

-|------------------------------------|------------------------------------|--

-|------------------------------------|------------------------------------|--

-|------------------------------------|------------------------------------|--

-|-9-9h11-9h11--9--0h5-5-5-5-5-5-5/7/-|-9-9h11-9h11--9--0h5-5-5-5-5-5-5/7/-|--

-|-9-9----9-----9--0h5-5-5-5-5-5-5/7/-|-9-9----9-----9--0h5-5-5-5-5-5-5/7/-|--

I'll stop trying to make a difference no way

 

-|--------------7---------------------|--------------7---------------------|--

-|--------------------------8-8-------|--------------------------8-8-------|--

-|---------------7vvv-------7-7-------|---------------7vvv-------7-7-------|--

-|-9-9----9-----------------------7b-0|-9-9----9-----------------------7b-0|--

-|-9-9----9---------------------------|-9-9----9---------------------------|--

-|-7-7----7---------------------------|-7-7----7---------------------------|--

mike quart quart

 

-|------------------------------------|------------------------------------|--

-|------------------------------------|------------------------------------|--

-|------------------------------------|------------------------------------|--

-|------------------------------------|------------------------------------|--

-|-9-9h11-9h11--9--0h5-5-5-5-5-5-5/7/-|-9-9h11-9h11--9--0h5-5-5-5-5-5-5/7/-|--

-|-9-9----9-----9--0h5-5-5-5-5-5-5/7/-|-9-9----9-----9--0h5-5-5-5-5-5-5/7/-|--

I'll stop trying to make a difference I'm not trying to make a difference

 

-|--------------7---------------------|--------------7---------------------|--

-|------------------------------------|--------------------------8-8-------|--

-|---------------7vvv-----------------|---------------7vvv-------7-7-------|--

-|-9-9----xx----------------------7b-0|-9-9----9-----------------------7b-0|--

-|-9-9----xx--------------------------|-9-9----9---------------------------|--

-|-7-7----xx--------------------------|-7-7----7---------------------------|--

mike quart quart

 

-|------------------------------------|------------------------------------|--

-|------------------------------------|------------------------------------|--

-|------------------------------------|------------------------------------|--

-|------------------------------------|-----------------------------6-6-6--|--

-|-9-9h11-9h11--9--0h5-5-5-5-5-5-5/7/-|-9-9h11-9h11--9--0h5-5-5-5-5-6-6-6--|--

-|-9-9----9-----9--0h5-5-5-5-5-5-5/7/-|-9-9----9-----9--0h5-5-5-5-5-6-6-6--|--

I'll stop trying to make a difference no way

 

-|--------------7---------------------|------------------------------------|--

-|--------------------------8-8-------|------------------------------------|--

-|---------------7vvv-------7-7-------|-------------7-9b11-9-7v------------|--

-|-9-9----9-----------------------7b--|-9-9----9--9------------------------|--

-|-9-9----9---------------------------|-9-9----9---------------------------|--

-|-7-7----7---------------------------|-7-7----7---------------------------|--

mike quart

 

-|------------------------------------|------------------------------------|--

-|------------------------------------|------------------------------------|--

-|------------------------------------|------------------------------------|--

-|-6--0-0---0--2-2---2--3-3---3-6-6-6-|-6--0-0---0--2-2---2--3-3---3-6-6-6-|--

-|-6--0-0---0--2-2---2--3-3---3-6-6-6-|-6--0-0---0--2-2---2--3-3---3-6-6-6-|--

-|-6--0-0---0--2-2---2--3-3---3-6-6-6-|-6--0-0---0--2-2---2--3-3---3-6-6-6-|--

bridge stone

 

-|------------------------------------|------------------------------------|--

-|------------------------------------|------------------------------------|--

-|------------------------------------|------------------------------------|--

-|-6--0-0---0--2-2---2--3-3---3-6-6-6-|-6--0-0---0--2-2---2--3-3---3-6-6-6-|--

-|-6--0-0---0--2-2---2--3-3---3-6-6-6-|-6--0-0---0--2-2---2--3-3---3-6-6-6-|--

-|-6--0-0---0--2-2---2--3-3---3-6-6-6-|-6--0-0---0--2-2---2--3-3---3-6-6-6-|--

Ooh let's call it an angel

 

-|------------------------------------|------------------------------------|--

-|------------------------------------|------------------------------------|--

-|------------------------------------|------------------------------------|--

-|-6--0-0---0--2-2---2--3-3---3-6-6-6-|-6--0-0---0--2-2---2--3-3---3-6-6-6-|--

-|-6--0-0---0--2-2---2--3-3---3-6-6-6-|-6--0-0---0--2-2---2--3-3---3-6-6-6-|--

-|-6--0-0---0--2-2---2--3-3---3-6-6-6-|-6--0-0---0--2-2---2--3-3---3-6-6-6-|--

Ooh let's call it an angel(with fill 6)

 

-|------------------------------------|------------------------------------|--

-|------------------------------------|------------------------------------|--

-|------------------------------------|------------------------------------|--

-|-6--0-0---0--2-2---2--3-3---3-6-6-6-|-6--0-0---0--2-2---2--3-3---3-6-6-6-|--

-|-6--0-0---0--2-2---2--3-3---3-6-6-6-|-6--0-0---0--2-2---2--3-3---3-6-6-6-|--

-|-6--0-0---0--2-2---2--3-3---3-6-6-6-|-6--0-0---0--2-2---2--3-3---3-6-6-6-|--

Ooh let's call it an angel

 

-|-16b17----16b17----16b17----16b17---|-16b17----16b17----16b17----16b17---|--

-|------------------------------------|------------------------------------|--

-|------------------------------------|------------------------------------|--

-|------------------------------------|------------------------------------|--

-|------------------------------------|------------------------------------|--

-|------------------------------------|------------------------------------|--

fill 6, mike (fade in) mute all bends when they reach the right tone

 

-|-16b17----16b17----16b17----16b17---|-16b17----16b17----16b17----16b17---|--

-|------------------------------------|------------------------------------|--

-|------------------------------------|------------------------------------|--

-|------------------------------------|------------------------------------|--

-|------------------------------------|------------------------------------|--

-|------------------------------------|------------------------------------|--

end fill 6

 

-|------------------------------------|------------------------------------|--

-|------------------------------------|------------------------------------|--

-|------------------------------------|------------------------------------|--

-|-7h8----7h8p5---5h7-----3-----5--7--|-7h8---8-8---5-5h7-----------5-3-5--|--

-|------------------------------------|------------------------------------|--

-|------------------------------------|------------------------------------|--

interlude guitar 1, with guitar 2

 

-|------------------------------------|------------------------------------|--

-|------------------------------------|------------------------------------|--

-|---7------7-------7-----------------|---7---7-7-7-7---7-----------7-7----|--

-|---8------8p7-----7-----------------|---8---8-8-7-7---7-----------7-7----|--

-|------------------------------------|------------------------------------|--

-|------------------------------------|-----------*------------------------|--

Interlude, guitar 2 p.m.

 

-|------------------------------------|------------------------------------|--

-|------------------------------------|------------------------------------|--

-|------------------------------------|------------------------------------|--

-|-7h8----7h8p5---5h7------3-----0h3--|-3h5--5-5-5--5h7--7-7---3--0--3-5---|--

-|------------------------------------|------------------------------------|--

-|------------------------------------|------------------------------------|--

guitar 1

 

-|------------------------------------|------------------------------------|--

-|------------------------------------|------------------------------------|--

-|---7---7-7--------7--7-----7--------|---7--7-7-7--7----7-7---x-----------|--

-|---8---8-8-x------7----7-----7------|---7--7-7-7--7----7-7---x-----------|--

-|-------------------------5-----5----|------------------------------------|--

-|------------------------------------|------------------------------------|--

guitar 2 with fill 7

 

-|------------------------------------|---------------------------------------

-|------------------------------------|---------------------------------------

-|------------------------------------|---------------------------------------

-|-7-----7-----7-----7/-/-/-/-/-/-/---|---------------------------------------

-|------------------------------------|---------------------------------------

-|------------------------------------|---------------------------------------

fill 7, guitar 3, with feedback, fade in

 

-|------------------------------------|------------------------------------|--

-|------------------------------------|------------------------------------|--

-|------------------------------------|-----------------------------7------|--

-|-7h8----7h8---5h7-------3----0-3-5--|-7h8---8--5--7-------------7---7-5--|--

-|------------------------------------|------------------------------------|--

-|------------------------------------|------------------------------------|--

guitar 1, with wah, with fill 8 and guitar 3

 

-|------------------------------------|------------------------------------|--

-|------------------------------------|------------------------------------|--

-|--12---10h12---10-------------------|------------------------------------|--

-|------------------------------------|------------------------------------|--

-|------------------------------------|------------------------------------|--

-|------------------------------------|------------------------------------|--

fill 8, guitar 2 (with distortion)

 

-|------------------------------------|------------------------------------|--

-|------------------------------------|------------------------------------|--

-|------------------------------------|------------------------------------|--

-|-7-8----7h8--------5h7--3-------0h3-|-3h5--5p0---7----7-5----------------|--

-|------------------------------------|------------5-----------------------|--

-|------------------------------------|------------------------------------|--

guitar 1

 

-|------------------------------------|------------------------------------|--

-|------------------------------------|----------------------------------18|--

-|------------------------------------|-14b15-----------------------14h16--|--

-|--------------------------------12--|------------------------12----------|--

-|------------------------------------|-------------------12h14------------|--

-|------------------------------------|------------------------------------|--

guitar 3, with feedback (absolutely not sure)

 

-|------------------------------------|------------------------------------|--

-|------------------------------------|--------------------------------15--|--

-|----------12h15--14--12--12---12b16-|------------------------------------|--

-|------------------------------------|------------------------------------|--

-|------------------------------------|------------------------------------|--

-|------------------------------------|------------------------------------|--

slow bend

 

-|------------------------------------|------------------------------------|--

-|------------------------------------|------------------------19----------|--

-|------------------------------------|-------------------16---------------|--

-|----------14---12-------------------|------------------------------------|--

-|------------------------------------|-17-17-17-17-17-17------------------|--

-|------------------------------------|------------------------------------|--

end guitar 3

 

-|------------------------------------|------------------------------------|--

-|------------------------------------|------------------------------------|--

-|------------------------------------|------------------------------------|--

-|------------------------------------|------------------------------------|--

-|-9-9h11-9h11--9--0h5-5-5-5-5-5-5/7/-|-9-9h11-9h11--9--0h5-5-5-5-5-5-5/7/-|--

-|-9-9----9-----9--0h5-5-5-5-5-5-5/7/-|-9-9----9-----9--0h5-5-5-5-5-5-5/7/-|--

cos I stop trying to make a difference I'm not trying to make a difference

 

-|--------------7---------------------|--------------7---------------------|--

-|--------------------------8-8-------|---------------8----------8-8-------|--

-|---------------7vvv-------7-7-------|---------------7----------7-7-------|--

-|-9-9----xx----------------------7b-0|-9-9----9-----------------------7b-0|--

-|-9-9----xx--------------------------|-9-9----9---------------------------|--

-|-7-7----xx--------------------------|-7-7----7---------------------------|--

chorus mike quart quart

 

-|------------------------------------|------------------------------------|--

-|------------------------------------|------------------------------------|--

-|------------------------------------|------------------------------------|--

-|------------------------------------|------------------------------------|--

-|-9-9h11-9h11--9--0h5-5-5-5-5-5-5/7/-|-9-9h11-9h11--9--0h5-5-5-5-5-5-5/7/-|--

-|-9-9----9-----9--0h5-5-5-5-5-5-5/7/-|-9-9----9-----9--0h5-5-5-5-5-5-5/7/-|--

I'll stop trying to make a difference no way

 

-|--------------7---------------------|------------------------------------|--

-|--------------------------8-8-------|------------------------------------|--

-|---------------7vvv-------7-7-------|----------7-9--9b11-9-7--7-9---7-9\-|--

-|-9-9----xx----------------------7b-0|--------9---------------9-----9-----|--

-|-9-9----xx--------------------------|------------------------------------|--

-|-7-7----xx--------------------------|------------------------------------|--

chorus mike quart

 

-|------------------------------------|------------------------------------|--

-|------------------------------------|------------------------------------|--

-|------------------------------------|------------------------------------|--

-|------------------------------------|------------------------------------|--

-|-9-9h11-9h11--9--0h5-5-5-5-5-5-5/7/-|-9-9h11-9h11--9--0h5-5-5-5-5-5-5/7/-|--

-|-9-9----9-----9--0h5-5-5-5-5-5-5/7/-|-9-9----9-----9--0h5-5-5-5-5-5-5/7/-|--

cos I'll stop trying to make a diff.. I'm not trying to make a difference

 

-|--------------7---------------------|--------------7---------------------|--

-|--------------------------8-8-------|---------------8----------8-8---12--|--

-|---------------7vvv-------7-7-------|---------------7----------7-7-------|--

-|-9-9----xx----------------------7b-0|-9-9----9---------------------------|--

-|-9-9----xx--------------------------|-9-9----9---------------------------|--

-|-7-7----xx--------------------------|-7-7----7---------------------------|--

chorus mike quart mike substitutes fill 9

 

-|------------------------------------|------------------------------------|--

-|------------------------------------|------------------------------------|--

-|------------------------------------|------------------------------------|--

-|------------------------------------|------------------------------------|--

-|-9-9h11-9h11--9--0h5-5-5-5-5-5-5/7/-|-9-9h11-9h11--9--0h5-5-5-5-5-5-5/7/-|--

-|-9-9----9-----9--0h5-5-5-5-5-5-5/7/-|-9-9----9-----9--0h5-5-5-5-5-5-5/7/-|--

I'm not trying to make a difference no way

 

-|------------------------------------|------------------------------------|--

-|------------------------------------|------------------------------------|--

-|------------------------------------|------------------------------------|--

-|------------------------------------|------------------------------------|--

-|-9-9h11-9h11--9--0h5-5-5-5-5-5-5/7/-|-9-9h11-9h11--9--0h5-5-5-5-5-5-5/7/-|--

-|-9-9----9-----9--0h5-5-5-5-5-5-5/7/-|-9-9----9-----9--0h5-5-5-5-5-5-5/7/-|--

no way

 

-|------------------------------------|------------------------------------|--

-|------------------------------------|------------------------------------|--

-|------------------------------------|------------------------------------|--

-|------------------------------------|------------------------------------|--

-|-9-9h11-9h11--9--0h5-5-5-5-5-5-5/7/-|-9-9h11-9h11--9--0h5-5-5-5-5-5-5/7/-|--

-|-9-9----9-----9--0h5-5-5-5-5-5-5/7/-|-9-9----9-----9--0h5-5-5-5-5-5-5/7/-|--

no way

 

-|------------------------------------|------------------------------------|--

-|------------------------------------|------------------------------------|--

-|------------------------------------|------------------------------------|--

-|------------------------------------|------------------------------------|--

-|-9-9h11-9h11--9--0h5-5-5-5-5-5-5/7/-|-9-9h11-9h11--9--0h5-5-5-5-5-5-5/7/-|--

-|-9-9----9-----9--0h5-5-5-5-5-5-5/7/-|-9-9----9-----9--0h5-5-5-5-5-5-5/7/-|--

let's call in an angel

 

-|------------------------------------|------------------------------------|--

-|------------------------------------|------------------------------------|--

-|------------------------------------|------------------------------------|--

-|------------------------------------|------------------------------------|--

-|-9-9h11-9h11--9--0h5-5-5-5-5-5-5/7/-|-9-9h11-9h11--9--0h5-5-5-5-5-5-5/7/-|--

-|-9-9----9-----9--0h5-5-5-5-5-5-5/7/-|-9-9----9-----9--0h5-5-5-5-5-5-5/7/-|--

who's calling an angel

 

-|------------------------------------|---------------------------------------

-|------------------------------------|---------------------------------------

-|------------------------------------|---------------------------------------

-|------------------------------------|---------------------------------------

-|-9-9h11-9h11--9--0h5-5-5-5-5-5-5/7/-|---------------------------------------

-|-9-9----9-----9--0h5-5-5-5-5-5-5/7/-|---------------------------------------

end.

 

-|------------------------------------|------------------------------------|--

-|-------------------------12-15------|------12-15-------------12-15-------|--

-|-14vvv-------14v--11--14-------14b--|-x-14-------14vv--11-14-------14vv--|--

-|------------------------------------|------------------------------------|--

-|------------------------------------|------------------------------------|--

-|------------------------------------|------------------------------------|--

fill 9 quart

 

-|------------------------------------|------------------------------------|--

-|-------12-15------------12-15-------|------------------10-7-10-10-7------|--

-|-11-14-------14vv-11-14-------14b16-|-------------------------------9b11-|--

-|------------------------------------|------------------------------------|--

-|------------------------------------|------------------------------------|--

-|------------------------------------|------------------------------------|--

slow bend

 

-|------------------------------------|------------------------------------|--

-|-----10-------------12---12-12-12-12/-15-15------15-17-17b18-17-15-15h17-|--

-|-9b11---9b11-7-9b11---11-11-11-11-11/-14-14-16---------------------------|--

-|------------------------------------|------------------------------------|--

-|------------------------------------|------------------------------------|--

-|------------------------------------|------------------------------------|--

start fade

 

-|------------------------------------|------------------------------------|--

-|------------------------------------|-----------17-15-17-15-17p15-17b19--|--

-|-/11--/14--14-14-14-14--14b16-14b16-|-14h16-14---------------------------|--

-|------------------------------------|------------------------------------|--

-|------------------------------------|------------------------------------|--

-|------------------------------------|------------------------------------|--

hold

 

-|------------------------------------|------------------------------------|--

-|---------------17-------------------|------------------------------------|--

-|------------------16-x-14-16--14-16-|-16\--7-7--7/9--9-9--9/11--11/13-14-|--

-|------------------------------------|------------------------------------|--

-|------------------------------------|------------------------------------|--

-|------------------------------------|------------------------------------|--

bend

 

-|------------------------------------|---------------------------------------

-|------------------------------------|---------------------------------------

-|-11-9--9----------------------------|---------------------------------------

-|-----12-12-9-12---------------------|---------------------------------------

-|------------------------------------|---------------------------------------

-|------------------------------------|---------------------------------------

faded out, so the end of fill 9

 

-|------------------------------------|-------------------------------------|-

-|------------------------------------|-------------------------------------|-

-|-----------------------------14---\-|-11----------------------------------|-

-|------------------------------------|-------------------------------------|-

-|------------------------------------|-------------------------------------|-

-|------------------------------------|-------------------------------------|-

guitar 3 last chorus (repeat 6 times)

 

-|---------------------------------|-----------------------------|------------

-|---------------------------------|-----------------------------|------------

-|-xx-------xx------xx------xx-----|-xx------xx-------xx------xx-|------------

-|-xx-------xx------xx------xx-----|-xx------xx-------xx------xx-|------------

-|-xx-------xx------xx------xx-----|-xx------xx-------xx------xx-|------------

-|---------------------------------|-----------------------------|------------

guitar 4, last chorus, with wah repeat till end.

 

 

Return to my to my Pearl Jam tabs page

The Tablature is Copyright its respective owners.

Sign Up For My Newsletter
Subscribe | Unsubscribe

Site Map | Disclaimer | Privacy Policy | Media Kit | Submissions/Corrections

Website © 2000-2014 mattsmusicpage.com. All rights reserved.

Legal & DMCA: Matt's Music Page has been providing lyrics and tabs in a legal way, paying royalties each year to a few organizations. Then, all lyrics and tabs were removed from the site. Now, there's a new owner to the site, which purchased it August 26, 2014, and he is in negotiation to obtain licensing from BMI at the moment. If you have a specific DMCA request -- please do not hesitate to contact me via the contact button on top. I will do my very best to keep this site fully legal.

Get our toolbar!