Your One-Stop Source For
Music Lyrics
Bass and Guitar Tabs
and More...
Music Lyrics Bass and Guitar Tabs

The Panic At the Disco Bass Tabs Are Below

Learn To Read Tab
Chords Handbook
Corrections & Additions
Get Official Tab
Panic tabs @ 911Tabs

We're So Starving - Panic At The Disco

-------------------------------------------------------------------------------

 

Tabbed By: Valerie L

e-mail: iloled@yahoo.com

Tuning: standard

 

Verse starts at the end of "you. Oh how it's been so long."

G|----------------------------------------------------------1----|

D|-----------1333-31--------------1333-31----------------1h3--h3-|

A|---------13--------31--------13---------31---------1-1---------|

E|1--1-1-1--------------1-1-1-1---------------4-4-4-4------------|

 

Chorus "You don't have to worry..."

G|---------------------------------------------------|

D|---------------------------------------------------|

A|------------------1-1-1-1-1-1-1--------------3-1---|

E|-1-1-1-1--4-4-4-4--------------4--1-1-1-1-1------4-|

 

G|---------------------------------|

D|---------------------------------|

A|------------------------1-1-1-1--|

E|1-1-1-1-1-1-1-1-4-4-4-4----------| x2

 

outro verse

G|--------------------------------------------------------1--| |-----|

D|---------1333-31-------------1333-31----------------1h3--h3| |-----|

A|------13--------31--------13---------31---------1-1--------| |-1~--|

E|1-1-1--------------1-1-1-1---------------4-4-4-4-----------|x2 |-----|

Return to my Panic At the Disco Bass Tabs page

The Tablature is Copyright its respective owners.

Get our toolbar!