Your One-Stop Source For
Music Lyrics
Bass and Guitar Tabs
and More...
Music Lyrics Bass and Guitar Tabs

 

The Tabs Are Below

Learn To Read Tab
Chords Handbook
Corrections & Additions
Get Official Tab
No Doubt tabs @ 911Tabs

insy winsy correction =P~~~~~

 

Intro

G:----------------------

D:---2-2----------------

A:------0-0-3-3--7-5----

E:0-0----------------10-

 

Chorus

G:--------------------------------------0-2-0-

D:--------4-4--3-3---3--5-5---5--3-3--3-------

A:-0-1-2-2---------3--------5-----------------

E:--------------------------------------------

 

G:--------------------------------------------

D:-----4-4--3-3---3--5-5---5------------------

A:--2-2---------3--------5----8-8--8-10-12-12-

E:--------------------------------------------

 

G:--------------

D:--------------

A:-------7-5----

E:-10\x------10-

 

-alexalex (ahleckxs@hotmail.com)

 

No Doubt-"Staring Problem"

Written by-Gwen Stefani,Tony Kanal and Eric Stefani

Bass played by-Tony Kanal(The God of bass)

Tabbed by-Joel Aponte

CD-"The Return Of Saturn"

 

Everything is played very fast

 

Intro

G:----------------------

D:---2-2-----------2----

A:------0-0-3-3------3-2

E:0-0-------------------

 

Verse

G:--------------

D:---2-2--------

A:-------0-0-3-3

E:0-0-----------

 

End of the 1st verse

G:-----------

D:-----------

A:5~~~~------

E:-----1\12/1

 

End of other verses

G:-------

D:-------

A:5~~~~~~

E:-------

 

Chorus #1-Parenthesis played only the first time

G:-------------------------------------------

D:----------5-5-5-3-3--3-5-5--3-3-3-3-5-7-5--

A:(0-1)--3-3-3----------3------5-------------

E:-------------------------------------------

 

Chorus #2

G:--------------------------------------

D:-----5-5-5-3-3--3-5-5--3-3-3-3-5-7-5--

A:3-3-3----------3------5--------------3

E:--------------------------------------

 

Interlude

G:-----------------------------------------

D:------------3-3-2------------------------

A:0-0-7-7-5-5-----------0-0-7-7-5-5--------

E:----------------------------------0-0-0-3

 

Other Riff

G:-------------------------------

D:----------------5-5-3-3-1-1-0-0

A:-------------------------------

E:0-0-1-1-3-3-5-5----------------

 

\-slide up

/-slide down

~-Let ring

 

Order:

Intro-x2

Verse-x12

End of 1st verse-x1

Verse-x8

Chorus #1-x1

Chorus #2-x1

Intro-x1

Verse-x8

Chorus #1-x3

Chorus #2-X1

Interlude-X4

Other Riff-X1

Chorus #1-x5

Chorus #2-x1

 

Email is greatly apreciated at craigfan112@everclearfanatic.com

 

 

 

Return to my to my No Doubt bass tabs page

The Tablature is Copyright its respective owners.

Sign Up For My Newsletter
Subscribe | Unsubscribe

Site Map | Disclaimer | Privacy Policy | Media Kit | Submissions/Corrections

Website © 2000-2014 mattsmusicpage.com. All rights reserved.

Legal & DMCA: Matt's Music Page has been providing lyrics and tabs in a legal way, paying royalties each year to a few organizations. Then, all lyrics and tabs were removed from the site. Now, there's a new owner to the site, which purchased it August 26, 2014, and he is in negotiation to obtain licensing from BMI at the moment. If you have a specific DMCA request -- please do not hesitate to contact me via the contact button on top. I will do my very best to keep this site fully legal.

Get our toolbar!