Your One-Stop Source For
Music Lyrics
Bass and Guitar Tabs
and More...
>Music Lyrics Bass and Guitar Tabs

 

Tabs of Foo Fighters Songs

Learn To Read Tab
Chords Handbook
Corrections & Additions
Get Official Tab
Foo Fighters tabs @ 911Tabs

Tony Iommi (Dave Grohl) - Goodbye Lament

Matt ICQ (for any extra explanation of terms) [73120834]

 

(Tuning CGCFAD)

 

In this song I think Gtr 1 uses an octaver, which I don't have so

I won't bother writing in many of the parts, which just mimic the

notes of Gtr. 2 in higher octaves.

 

AH = Artificial Harmonics

 

To achieve an artificial harmonic, you must position the plectrum

at the same level as the end of the thumb so when you pluck the

string, both plectrum and thumb play the string, kind of pinching it

but NOT blatantly pinching it. For anyone who hasn't done this before

it can take a LONG time to perfect.

 

VB = Vibrato

 

Is Achieved by bending the string slightly up and down rapidly

 

Verse/Intro

 

Gtr 1 Reverb/distortion

 

AH------ VB---------

d)---------------------

a)-19b20b19------------

f)---------------------

c)----------10========-

g)---------------------

C)---------------------

 

Gtr 2 (comes in later)

 

 

VB--

d)--------------------

a)--------------------

f)--------------------

c)----0-3/15------6p5-

g)------3/15--0---6p5-

C)-0----3/15--0---6p5-

 

Verse loud

 

VB--

d)-------------------

a)-------------------

f)-------------------

c)------3/15-----6p5-

g)-0-0--3/15--0--6p5-

C)-0-0--3/15--0--6p5-

 

Occasional Riff

 

d)----------------------

a)----------------------

f)----------------------

c)------3/15------18p17-

g)-0-0--3/15--0---18p17-

C)-0-0--3/15--0---18p17-

 

Chorus build up (not gonna like this, but it is Iommi)

 

d)-------------------------------------------------------

a)-------------------------------------------------------

f)-7-----7-----7----9-----9-----9---10-----10-----10---12

c)-7-----7-----7----9-----9-----9---10-----10-----10---12

g)-5-5-5-5-5-5-5-5--5-5-5-5-5-5-5-5-5--5-5-5--5-5-5--5-10

C)---0-0---0-0---0----0-0---0-0---0----0-0----0-0----0---

 

d)----------------

a)----------------

f)----------------

c)-10\9\7--9\7\5--

g)--8\7\5--7\5\3--

C)----------------

 

d)-------------------------------------------------------

a)-------------------------------------------------------

f)-7-----7-----7----9-----9-----9---10-----10-----10---12

c)-7-----7-----7----9-----9-----9---10-----10-----10---12

g)-5-5-5-5-5-5-5-5--5-5-5-5-5-5-5-5-5--5-5-5--5-5-5--5-10

C)---0-0---0-0---0----0-0---0-0---0----0-0----0-0----0---

 

d)----------

a)----------

f)-12---10--

c)-12---10--

g)-10---8---

C)----------

 

That's about all you need, and all your gonna get from me.

 

_____________________________________

http://tabs.foofighters.com

Matt Armstrong [matt@foofighters.com]

 

Return to my to my Foo Fighters tabs page

The Tablature is Copyright its respective owners.

Sign Up For My Newsletter
Subscribe | Unsubscribe

Site Map | Disclaimer | Privacy Policy | Media Kit | Submissions/Corrections

Website © 2000-2014 mattsmusicpage.com. All rights reserved.

Legal & DMCA: Matt's Music Page has been providing lyrics and tabs in a legal way, paying royalties each year to a few organizations. Then, all lyrics and tabs were removed from the site. Now, there's a new owner to the site, which purchased it August 26, 2014, and he is in negotiation to obtain licensing from BMI at the moment. If you have a specific DMCA request -- please do not hesitate to contact me via the contact button on top. I will do my very best to keep this site fully legal.

Get our toolbar!

 

BONE CRUSHER GRIPPIN THE GRAIN SO SO DEF ARISTA RECORDS VINYL 12"
$0.79
BONE CRUSHER GRIPPIN THE GRAIN SO SO DEF ARISTA RECORDS VINYL  12


ANN NESBY LET YOUR WILL BE DONE UNIVERSAL RECORDS VINYL 12"
$0.49
ANN NESBY LET YOUR WILL BE DONE UNIVERSAL RECORDS  VINYL  12


LOLEATTA HOLLOWAY CRASH GOES LOVE PROMO STREETWISE RECORDS VINYL 12"
$0.89
LOLEATTA HOLLOWAY CRASH GOES LOVE PROMO STREETWISE RECORDS VINYL  12


Vintage Disney Tale Spinners Vinyl Record Album CINDERELLA
$8.5
 Vintage Disney Tale Spinners Vinyl Record Album CINDERELLA  picture


Vintage Collectible 1977 Donny & Marie Osmond 45 Record Vinyl Box W/ 16 Records.
$9.99
Vintage Collectible 1977 Donny & Marie Osmond 45 Record Vinyl Box W/ 16 Records. picture