Your One-Stop Source For
Music Lyrics
Bass and Guitar Tabs
and More...
Music Lyrics Bass and Guitar Tabs

 

The Tabs Are Below

Learn To Read Tab
Chords Handbook
Corrections & Additions
Get Official Tab
Blink 182 tabs @ 911Tabs

 

Transvestite

By Blink 182

From Buddha (Tape)

Tabbed by Chasing the Dragon (kirei_008@hotmail.com)

 

A very funny song off their tape. If you've never heard it before, at least

read the lyrics. (at the bottom of the tab)

 

 

Intro:

----------------------------------

----------------------------------

----------------------------------

----2---0---3---------------------

--3---3---3---3---0-2-3-2-0-2-----

----------------------------------

 

Verse:

-----------------------------------------------------------------------------------------

-----------------------------------------------------------------------------------------

-----------------------------------------------------------------------------------------

--5555555555555555-----------------------------------------------------------------------

--3333333333333333--3333333333333333--5555555555555555--3333333333333333-----------------

--------------------1111111111111111--3333333333333333--1111111111111111-----------------

 

Chorus:

----------------------------------------------

----------------------------------------------

----------------------------------------------

--555555--------------------------------------

--333333--55555555--777777--7777777-----------

----------33333333--555555--1111111-----------

 

Inbetween first ad second verse:

-----------------------------------------------------------------------------------------

-----------------------------------------------------------------------------------------

-----------------------------------------------------------------------------------------

----2---0---3---2-0-----2---0---3---2-0------2---0---3---2-0-----2---0---3---2-0---------

--3---3---3---3-----3-0---3---3---3-----3--2---3---3---3-----3-3---3---3---3-----3-------

-----------------------------------------------------------------------------------------

 

-----------------------------------------------------------------------------------------

-----------------------------------------------------------------------------------------

-----------------------------------------------------------------------------------------

----------------2---0---3---2-0-----2---0---3---2-0------2---0---3---2-0-----2---0---3---

-0-2-3-2-0-2--3---3---3---3-----3-0---3---3---3-----3--2---3---3---3-----3-3---3---3---3-

-----------------------------------------------------------------------------------------

 

----------------

----------------

----------------

----------------

--0-2-3-2-0-2---

----------------

 

"my moms a transvestite!"

--------------------------------------

--------------------------------------

--------------------------------------

--555555------------------------------

--333333-555555-777777-333333---------

---------333333-555555-111111---------

 

wait for a bit, then start quietly playing a verse; (while Mark is singing, "oh mom...

why'd ya have to buy all those mens clothes...)

-----------------------------------------------------------------------------------------

-----------------------------------------------------------------------------------------

-----------------------------------------------------------------------------------------

--5555555555555555-----------------------------------------------------------------------

--3333333333333333--3333333333333333--5555555555555555--3333333333333333-----------------

--------------------1111111111111111--3333333333333333--1111111111111111-----------------

|-------------| Somwhere in here is where Mark

should start singing...

"Oh Mom...why'd ya have to buy all

those guys clothes"

 

 

 

Distortion part:

 

Start off with;

 

-----------

-----------

-----------

-----------

--333------

--111------

 

-----------------------------------------------------------------------------------------

-----------------------------------------------------------------------------------------

-----------------------------------------------------------------------------------------

--5555555555555555-------------------------------------------------------55555555--------

--3333333333333333-555555555555555---7777777777777777--3333333333333333--33333333--------

-------------------333333333333333---5555555555555555--1111111111111111------------------

 

Lyrics:

 

My mom is not a woman anymore,

She dresses like a man

She's not as feminine as she

Used to be before.

Now she is so damned masculine.

 

I open my eyes

My mom's not a woman anymore

She's wearing a disguise

Everytime she leaves through that door

 

My mom's not quite the same

As she was in the past

If I misbehave she kicks my ass

 

My mom's not quite the

Woman that she was before

When my friends come over

She likes to wrestle them down to the floor

 

My mom's a transvestite

 

 

 

 

 

 

 

 

Longest line fix;

This is part of 'Longest Line' (which I tabbed a while back)

when tom say's "i must have..." play this;

-----------------------------

-----------------------------

-----------------------------

-----------------------------

-3--5--7--8------------------

-1--3--5--6------------------

 

"I think" lyrics; (I can't hear Mark too well)

When it's dark it's sometimes nice to see a light

just a headlight, like the one thats heading right for me

 

It would be nice if things would turn out right, turn out right

don't think i'll ever see the day

 

I must have done something wrong to maybe mess up, now I

 

I think of chinese girls when I think life, sweet and sour

my lifes as sweet as sucharrin

And ever week of milk and grapes are not, they're not the same notes

I am the one johnny carcinegin

 

I must have, fucked with some witch in turn she cursed me

cuz my life, at the end of the longest line, thats where i will always be

if you need to find me, you just fo to the end of the longest line

 

Cool Solo:

------------------------------------------

------------------------------------------

------------------------------------------

------------------------------------------

------10-8-7-----------7-8-8-7------------

--8-8--------10-8-8-10---------10-8-8-10--

 

----------------------------------------------------------------

----------------------------------------------------------------

------------10-9-9-------9-12-12-17-14-12-12-14-12-9------------

--9-9-10-10--------10-10----------------------------------------

----------------------------------------------------------------

----------------------------------------------------------------

 

But officer that was a yellow light, the light was red sign

insubordination like this driving

I must be wrong this can't be right

it's must too dangerous

will someone make it look like me

at the end of the longest line, thats where i will always be

if you need to find me, you just fo to the end of the longest line

at the end of the longest line, that's where i will be, at the end of the longest line

 

 

 

 

 

 

 

 

----Extra Super Cool Bonus Songs------------------------------------------------------------

 

A long time ago i tabbed "alone", and found it lying around my room. So heres

an extra bonus;

 

Alone

Blink 182

From Flyswatter

 

Intro:

Repeat ×6

--------------------------------------

--------------------------------------

--------------------------------------

-----2--3--2--0-------5--3--2---------

--0----------------3------------------

--------------------------------------

 

Then play:

--------------------------------------

--------------------------------------

--------------------------------------

-----2--3--2--0---------5--5--3-2-3-2-

--0----------------3-3----------------

--------------------------------------

 

Repeat×3

--------------------------------------

--------------------------------------

--------------------------------------

-----2--3--2--0-------5--3--2---------

--0----------------3------------------

--------------------------------------

 

Then play:

 

--------------------------------------

--------------------------------------

--------------------------------------

-----2--3--2--0---------5-5--3-3--22--

--0----------------3-3----------------

--------------------------------------

 

Verse:

 

----------------------------------------------------------------------

----------------------------------------------------------------------

----------------------------------------------------------------------

--555555555555555-------------------555555555555555-------------------

--333333333333333--777777777777777--333333333333333--777777777777777--

-------------------555555555555555-------------------555555555555555--

 

Chorus:

Boxed notes should be played more then once. Listen to the song

to get the strum right.

----------------------------------------------------------------------

----------------------------------------------------------------------

----------------------------------------------------------------------

--[5]-[10]--[12]---------------[10]--[12]-----------------------------

--[3]--[8]--[10]--[12]--[10]---[8]---[10]--[12]-----------------------

------------------[10]---[8]---------------[10]-----------------------

 

----------------------------------------------------------------------

----------------------------------------------------------------------

----------------------------------------------------------------------

------------999999999--1010101010101010-------------------------------

--77777777--777777777---8-8-8-8-8-8-8-8--1010101010101010-------------

--55555555--------------------------------8-8-8-8-8-8-8-8-------------

 

----------------------------------------------------------------------

----------------------------------------------------------------------

----------------------------------------------------------------------

------------999999999--1010101010101010-------------------------------

--77777777--777777777---8-8-8-8-8-8-8-8--1010101010101010-------------

--55555555--------------------------------8-8-8-8-8-8-8-8-------------

 

----------------------------------------------------------------------

----------------------------------------------------------------------

----------------------------------------------------------------------

------------999999999--1010101010101010-------------------------------

--77777777--777777777---8-8-8-8-8-8-8-8--1010101010101010-------------

--55555555--------------------------------8-8-8-8-8-8-8-8-------------

 

----------------------------------------------------------------------

----------------------------------------------------------------------

----------------------------------------------------------------------

------------999999999--1010101010101010-------------------------------

--77777777--777777777---8-8-8-8-8-8-8-8--1010101010101010-------------

--55555555--------------------------------8-8-8-8-8-8-8-8-------------

 

After Chorus/ Before Verse:

 

Repeat×3

--------------------------------------

--------------------------------------

--------------------------------------

-----2--3--2--0-------5--3--2---------

--0----------------3------------------

--------------------------------------

 

Then play:

 

--------------------------------------

--------------------------------------

--------------------------------------

-----2--3--2--0---------5-5--3-3--22--

--0----------------3-3----------------

--------------------------------------

 

 

Last Intro Riff:

 

Repeat×2

--------------------------------------

--------------------------------------

--------------------------------------

-----2--3--2--0-------5--3--2---------

--0----------------3------------------

--------------------------------------

 

 

End on:

----- -----

----- -----

----- -----

----- or --5--

-10-- --3--

--8-- -----

 

Song Layout:

Intro

Verse

Chorus

After Chorus/ Before Verse

Verse

Chorus

Last Intro Riff

Chorus

 

Heres a song which I think may be an intro to another song;

This one song

 

Each Line until "and it hurts...really bad"

------------------------------------------

------------------------------------------

--------9--10-----------------------------

--5--7--9--10-----------------------------

--3--5--7---8-----------------------------

------------------------------------------

 

 

Lyrics:

 

This one goes out, to all the fans

To all the punk rock kids who've been into our band

You only know us, from this one song

Here's news for you we've been around almost six years long

 

and it hurts...really bad

 

_________________

Anthem Part 2 Tab!

 

Intro:

--3-----3-----1-----1-----0-----0-----1-----1--------

-----1-----1-----1-----1-----1-----1-----1-----1-----

-----------------------------------------------------

-----------------------------------------------------

-----------------------------------------------------

-----------------------------------------------------

 

Guitar 2 Plays this:

-|-------------|-------

-|---5--h6--5--|-3--3--

-|-------------|-------

-|-----(×3)----|-------

-|-------------|-------

-|-------------|-------

 

This is played right before the first verse

--0--1--0--------0--1--0--------0--1--0--------0--1-------

-----------1--3-----------1--3-----------1--3--------1----

----------------------------------------------------------

----------------------------------------------------------

----------------------------------------------------------

----------------------------------------------------------

 

Verse Guitar:

This is played near the end of a verse, while tom is singing. For example,

in oen verse, it's played while he's singing 'drown the

youth with useless warnings"

 

------|----------------------------------------------------

------|----------------------------------------------------

------|-----Palm Mute--------------------------------------

--555-|-[5]-------------[5]--------------------------------

--333-|-[3]--[7]---[3]--[3]--[7]---[3]---------------------

------|------[5]---[1]-------[5]---[1]---------------------

 

 

Riff Inbetween First and Second Verse

-----------------------------------------------------

-----------------------------------------------------

-----------------------------------------------------

-----5-----------------------------------------------

--3--------5-----------3-----------------------------

--------3-----3-----1--------------------------------

 

Chorus:

Part 1 (Play Twice)

-----------------------------------------------------

-----------------------------------------------------

--[5]-------[5]--------------------------------------

--[5]--[3]--[5]--[3]---------------------------------

--[3]--[3]--[3]--[3]---------------------------------

-------[1]-------[1]---------------------------------

 

Chorus:

Part 2 (Played when Tom say's "We'll never give up, it's no use)

|----------------|-----------------------------------------

|--palm----------|-----------------------------------------

|---mute---------|-----------------------------------------

|--[5]-----------|-----------------------------------------

|--[3]--[3]--[5]-|--3--------------------------------------

|-------[1]--[3]-|--1--------------------------------------

 

Switch from 1-3 to 3-5 when Tom say's "use"

 

 

Bass Solo:

-----------------------------------------------------

-----------------------------------------------------

-----------------------------------------------------

-----------------------------------------------------

--[3]------------------------------------------------

-------[5]--[1]--------------------------------------

 

----The Song EVERYONE should know...--------------------------------------------------------

 

-------------------------------

-------------------------------

-----46-------------------------

--------5----5-----5--------7--

--5--------5----3-----3--5-----

-------------------------------

"I...I want to fuck a dog...I want to fuck a dog in the ass..."

 

 

----- Kick Ass Song --------------------------------------------------------------------------

Theres this game, Grand Theft Auto, so heres a song that plays mostly when you're in

the phat sports cars;

 

Intro/ Verse

------------------------------------------------------------------

------------------------------------------------------------------

------------------------------------------------------------------

------------------------------------------------------------------

------------------5-------5---------------------------------------

--7-7-7-7-7-7-7-7---7-7-7---7-7-7--3-3-3-3-3-2-2-2-2-5-5-6--------

 

Cool Distortion Riff;

------------------------------------------------------------------

------------------------------------------------------------------

------------------------------------------------------------------

------------------------------------------------------------------

--99999999-555-333-78---------------------------------------------

--77777777-333-222-56---------------------------------------------

 

 

Return to my to my Blink 182 tabs page

The Tablature is Copyright its respective owners.

 

Sign Up For My Newsletter
Subscribe | Unsubscribe

Site Map | Disclaimer | Privacy Policy | Media Kit | Submissions/Corrections

Website © 2000-2014 mattsmusicpage.com. All rights reserved.

Legal & DMCA: Matt's Music Page has been providing lyrics and tabs in a legal way, paying royalties each year to a few organizations. Then, all lyrics and tabs were removed from the site. Now, there's a new owner to the site, which purchased it August 26, 2014, and he is in negotiation to obtain licensing from BMI at the moment. If you have a specific DMCA request -- please do not hesitate to contact me via the contact button on top. I will do my very best to keep this site fully legal.

Get our toolbar!