Your One-Stop Source For
Music Lyrics
Bass and Guitar Tabs
and More...
Music Lyrics Bass and Guitar Tabs

 

The Tabs Are Below

Learn To Read Tab
Chords Handbook
Corrections & Additions
Get Official Tab
Blink 182 tabs @ 911Tabs

 

Blink 182 - My Pet Sally

by Dan

fuzzy14@hotmail.com

 

This is my first tab and it isn't completely correct but it's the best

I can do for this song.

 

 

Riff 1

G:---------------------------------------------------------------------------

D:---------------------------------------------------------------------------

A|------------------5555555--------------------------------------------------

E|---5555---7777-------------------------------------------------------------

 

Riff 2

G|---------------------------------------------------------------------------

D|------------777------------------------------------------------------------

A|-------77-----------5------------------------------------------------------

E|---55----------------------------------------------------------------------

 

Riff 3

G|---------------------------------------------------------------------------

D|----------7777----------7777-----------------------------------------------

A|---7777-----------7777-----------7777----5555555---------------------------

E|---------------------------------------------------------------------------

 

Riff 4

G|--------------------------------------------------------------------------

D|------------------7777777--------------------------------------------------

A|----777----999-------------------------------------------------------------

E|---------------------------------------------------------------------------

 

Riff 5

G|---------------------------------------------------------------------------

D|------------777------------------------------------777---------------------

A|--------77--------5---------77--555---7--------77--------5-----------------

E|-----55-----------------55-----------------55------------------------------

 

Riff 6

G|---------------------------------------------------------------------------

D|---------------------------------------------------------------------------

A|-------7-----5-7-5---------------------------------------------------------

E|----5------------------9--4------------------------------------------------

 

*Order*

Riff 1 x 8

Riff 2 x 4

Riff 3 x 1

Riff 1 x 4

Riff 2 x 4

Riff 3 x 1

Riff 4 x 5

Riff 6 x 1

Riff 7 x 1

 

Return to my to my Blink 182 tabs page

The Tablature is Copyright its respective owners.

 

Sign Up For My Newsletter
Subscribe | Unsubscribe

Site Map | Disclaimer | Privacy Policy | Media Kit | Submissions/Corrections

Website © 2000-2014 mattsmusicpage.com. All rights reserved.

Legal & DMCA: Matt's Music Page has been providing lyrics and tabs in a legal way, paying royalties each year to a few organizations. Then, all lyrics and tabs were removed from the site. Now, there's a new owner to the site, which purchased it August 26, 2014, and he is in negotiation to obtain licensing from BMI at the moment. If you have a specific DMCA request -- please do not hesitate to contact me via the contact button on top. I will do my very best to keep this site fully legal.

Get our toolbar!

 

1939 LYRIC THEATRE New York PHOTO
$5.83
1939 LYRIC THEATRE New York PHOTO picture


Star Spangled Banner or Marines Hymn lyrics signed by WWII Charles W. Lindberg
$10.0
Star Spangled Banner or Marines Hymn lyrics signed by WWII Charles W. Lindberg picture


OLD LARGE HISTORIC PHOTO OF THE LYRIC THEATRE, SYDNEY c1930s, WAR BONDS BOOTH
$7.42
OLD LARGE HISTORIC PHOTO OF THE LYRIC THEATRE, SYDNEY c1930s, WAR BONDS BOOTH picture


SONG OF REVOLUTION CARD SET WITH 13 MOST FAVORED COMMUNIST SONGS LYRICS + NOTES
$24.99
SONG OF REVOLUTION CARD SET WITH 13 MOST FAVORED COMMUNIST SONGS LYRICS + NOTES picture


OLD LARGE HISTORIC PHOTO OF THE LYRIC THEATRE, SYDNEY c1930s, WAR LOANS BOOTH
$7.42
OLD LARGE HISTORIC PHOTO OF THE LYRIC THEATRE, SYDNEY c1930s, WAR LOANS BOOTH picture