Your One-Stop Source For
Music Lyrics
Bass and Guitar Tabs
and More...
>Music Lyrics Bass and Guitar Tabs

 

The Bad Religion Bass Tabs Are Below

Learn To Read Tab
Chords Handbook
Corrections & Additions
Get Official Tab
Bad Religion tabs @ 911Tabs

FIELDS OF MARS (Bassline)

As recorded by Bad Religion

(From the 2007 Album NEW MAPS OF HELL)

 

Words and Music by Greg Graffin

Arranged by Bad Religion

Transcribed by Spidey255

 

Gtr I (D A D G) - 'Untitled'

 

Intro

Q=84

4/4

Gtr I

Wx4

|--------|

|--------|

|--------|

|--------|

 

 

Q=161

E E +S S E E E E E E E +S S E E E E E

|---------------------|---------------------|

|---------------------|---------------------|

|---------------------|---------------------|

|-5-5-(5)-5-5-5-5-5-5-|-5-5-(5)-5-5-5-5-5-5-|

 

 

E E +S S E E E E E E E +S S E E E E E

|---------------------|---------------------|

|---------------------|---------------------|

|---------------------|---------------------|

|-5-5-(5)-5-5-5-5-5-5-|-5-5-(5)-5-5-5-5-5-5-|

 

 

E E +S S E E E E E E E +S S E E E E E

|---------------------|---------------------|

|---------------------|---------------------|

|---------------------|---------------------|

|-2-2-(2)-2-2-2-2-2-2-|-2-2-(2)-2-2-2-2-2-2-|

 

 

E E +S S E E E E E E E +S S E E E E E

|---------------------|---------------------|

|---------------------|---------------------|

|-5-5-(5)-5-5-5-5-5-5-|-5-5-(5)-5-5-5-3-2-0-|

|---------------------|---------------------|

 

 

Verse

E E +S S E E E E E E E +S S E E E E E

||----------------------|---------------------|

||o---------------------|---------------------|

||o---------------------|---------------------|

||--5-5-(5)-5-5-5-5-5-5-|-5-5-(5)-5-5-5-5-5-5-|

 

 

E E +S S E E E E E E E +S S E E E E E

|---------------------|----------------------|

|---------------------|----------------------|

|---------------------|----------------------|

|-5-5-(5)-5-5-5-5-5-5-|-5-5-(5)-5-5-5-5-5-5--|

 

 

E E +S S E E E E E E E +S S E E E E E E E +S S E E E E E

|---------------------|---------------------|---------------------|

|---------------------|---------------------|---------------------|

|---------------------|---------------------|-5-5-(5)-5-5-5-5-5-5-|

|-2-2-(2)-2-2-2-2-2-2-|-2-2-(2)-2-2-2-2-2-2-|---------------------|

 

 

1. 2.

E E +S S E E E E E E E +S S E E E E E

|----------------------||----------------------|

|---------------------o||----------------------|

|-5-5-(5)-5-5-5-5-5-5-o||-5-5-(5)-5-5-5-3-2-0--|

|----------------------||----------------------|

 

 

Pre-Chorus

$

$$

E E S S E E E S S E E E S S E E E S S E

||----------------------|---------------------|

||o---------------------|---------------------|

||o-3-3-3-3-3-3-3-3-3-3-|-5-5-5-5-5-5-5-5-5-5-|

||----------------------|---------------------|

 

 

1. 2.

E E S S E E E S S E E E S S E E E E E E E S S E E E S S E

|---------------------|--------------------||----------------------|

|---------------------|-----------2-0-----o||----------------------|

|---------------------|---------------3-2-o||----------------------|

|-2-2-2-2-2-2-2-2-2-2-|-2-2-2-2-2----------||-5-5-5-5-5-5-5-5-5-5--|

 

 

E E S S E E E S S E E E S S E E E S S E

|---------------------|---------------------|

|---------------------|---------------------|

|-3-3-3-3-3-3-3-3-3-3-|---------------------|

|---------------------|-0-0-0-0-0-0-0-0-0-0-|

 

 

E E S S E E E S S E E E S S E E E E E

|---------------------|---------------------|

|---------------------|---------------------|

|---------------------|---------------------|

|-2-2-2-2-2-2-2-2-2-2-|-5-5-5-5-5-5-5-5-5---|

 

 

E E S S E E E S S E E E S S E E E E E

|---------------------|-------------------|

|---------------------|-------------------|

|---------------------|---------------0-2-|

|-3-3-3-3-3-3-3-3-3-3-|-3-3-3-3-3-3-5-----|

 

 

To Dbl. Coda

E E S S E E E S S E E E S S E E E E E

|---------------------|-------------------|

|---------------------|-------------------|

|-3-3-3-3-3-3-3-3-3-3-|-3-3-3-3-3-3-2-0---|

|---------------------|-----------------3-|

 

 

Chorus

E E S S E E E S S E E E S S E E E S S E

||----------------------|---------------------|

||o---------------------|---------------------|

||o---------------------|---------------------|

||--5-5-5-5-5-5-5-5-5-5-|-5-5-5-5-5-5-5-5-5-5-|

 

 

1. 2.

To Coda

E E S S E E E S S E E E S S E E E E E E E S S E E E E E

|---------------------|--------------------||---------------------|

|---------------------|-------------------o||---------------------|

|-3-3-3-3-3-3-3-3-3-3-|-3-3-3-3-3-3-2-0---o||-3-3-3-3-3-3-2-3-5---|

|---------------------|-----------------3--||---------------------|

 

 

Verse

E E +S S E E E E E E E +S S E E E E E

|---------------------|---------------------|

|---------------------|---------------------|

|---------------------|---------------------|

|-5-5-(5)-5-5-5-5-5-5-|-5-5-(5)-5-5-5-5-5-5-|

 

 

E E +S S E E E E E E E +S S E E E E E

|---------------------|---------------------|

|---------------------|---------------------|

|---------------------|---------------------|

|-5-5-(5)-5-5-5-5-5-5-|-5-5-(5)-5-5-5-5-5-5-|

 

 

E E +S S E E E E E E E +S S E E E E E

|---------------------|---------------------|

|---------------------|---------------------|

|---------------------|---------------------|

|-2-2-(2)-2-2-2-2-2-2-|-2-2-(2)-2-2-2-2-2-2-|

 

 

D.S. al Coda

E E +S S E E E E E E E +S S E E E E E

|---------------------|---------------------|

|---------------------|---------------------|

|-5-5-(5)-5-5-5-5-5-5-|-5-5-(5)-5-5-5-3-2-0-|

|---------------------|---------------------|

 

 

Chorus (cont.)

&

E E S S E E E S S E E E S S E E E S S E

||----------------------|---------------------|

||o---------------------|---------------------|

||o---------------------|---------------------|

||--5-5-5-5-5-5-5-5-5-5-|-5-5-5-5-5-5-5-5-5-5-|

 

 

1. 2.

E E S S E E E S S E E E S S E E E E E E E S S E E E E E

|---------------------|--------------------||---------------------|

|---------------------|-------------------o||---------------------|

|-3-3-3-3-3-3-3-3-3-3-|-3-3-3-3-3-3-2-0---o||-3-3-3-3-3-3-2-3-5---|

|---------------------|-----------------3--||---------------------|

 

 

Bridge

D.S.S. al Dbl. Coda

Wx8

|--------|

|--------|

|--------|

|--------|

 

 

Out-Chorus

Q=161

&&

E E S S E E E S S E E E S S E E E S S E

||----------------------|---------------------|

||o---------------------|---------------------|

||o---------------------|---------------------|

||--5-5-5-5-5-5-5-5-5-5-|-5-5-5-5-5-5-5-5-5-5-|

 

 

1.,2.,3.

E E S S E E E S S E E E S S E E E E E 4x

|---------------------|---------------------||

|---------------------|--------------------o||

|-3-3-3-3-3-3-3-3-3-3-|-3-3-3-3-3-3-2-0----o||

|---------------------|-----------------3---||

 

 

4.

E E S S E E E E E W W

|-------------------|----------|------*|

|-------------------|----------|------*|

|-3-3-3-3-3-3-2-3-5-|----------|------*|

|-------------------|----------|------*|

 

 

Duration Legend

---------------

W - whole; H - half; Q - quarter; E - 8th; S - 16th; T - 32nd; X - 64th; a - acciaccatura

+ - note tied to previous; . - note dotted; .. - note double dotted

Uncapitalized letters represent notes that are staccato (1/2 duration)

Irregular groupings are notated above the duration line

Duration letters will always appear directly above the note/fret number it represents the

duration for. Duration letters with no fret number below them represent rests. Multi-

bar rests are notated in the form Wxn, where n is the number of bars to rest for. Low

melody durations appear below the staff

 

Tablature Legend

----------------

h - hammer-on

p - pull-off

b - bend

pb - pre-bend

r - bend release (if no number after the r, then release immediately)

/\ - slide into or out of (from/to "nowhere")

s - legato slide

S - shift slide

- natural harmonic

[n] - artificial harmonic

n(n) - tapped harmonic

~ - vibrato

tr - trill

T - tap

TP - trem. picking

PM - palm muting

\n/ - tremolo bar dip; n = amount to dip

\n - tremolo bar down

n/ - tremolo bar up

/n\ - tremolo bar inverted dip

= - hold bend; also acts as connecting device for hammers/pulls

<> - volume swell (louder/softer)

x - on rhythm slash represents muted slash

o - on rhythm slash represents single note slash

 

Misc Legend

-----------

| - bar

|| - double bar

||o - repeat start

o|| - repeat end

*| - double bar (ending)

: - bar (freetime)

$ - Segno

& - Coda

Tempo markers - = BPM(8/16=s8/s16), where s8 = swing 8ths, s16 = swing 16ths

Return to my Bad Religion Bass Tabs page

The Tablature is Copyright its respective owners.

Sign Up For My Newsletter
Subscribe | Unsubscribe

Site Map | Disclaimer | Privacy Policy | Media Kit | Submissions/Corrections

Website © 2000-2014 mattsmusicpage.com. All rights reserved.

Legal & DMCA: Matt's Music Page has been providing lyrics and tabs in a legal way, paying royalties each year to a few organizations. Then, all lyrics and tabs were removed from the site. Now, there's a new owner to the site, which purchased it August 26, 2014, and he is in negotiation to obtain licensing from BMI at the moment. If you have a specific DMCA request -- please do not hesitate to contact me via the contact button on top. I will do my very best to keep this site fully legal.

Get our toolbar!

 

C36/ Easter Greetings Holiday Postcard 1923 Dressed Rabbit Playing Banjo 32
$7.0
C36/ Easter Greetings Holiday Postcard 1923 Dressed Rabbit Playing Banjo 32 picture


MEMPHIS PROTOTYPE GOLD BANJO & BLUE GUITAR TREBLE CLEF NOTE Hard Rock Cafe PIN
$39.99
MEMPHIS PROTOTYPE GOLD BANJO & BLUE GUITAR TREBLE CLEF NOTE Hard Rock Cafe PIN picture


OLD LARGE PHOTO, AUSTRALIAN BUSH PET, BANJO PATERSON c1905
$5.69
OLD LARGE PHOTO, AUSTRALIAN BUSH PET, BANJO PATERSON c1905 picture


FENDER BANJO ( CONCERT TONE 5-STRING + 2 ) 1967 Vintage Jazz magazine PROMO Ad
$15.95
FENDER BANJO ( CONCERT TONE 5-STRING + 2 ) 1967 Vintage Jazz magazine PROMO Ad picture


Denneys Harley Davidson Lrg t shirt Branson MO Guitar Banjo Retro Microphone
$8.79
Denneys Harley Davidson Lrg t shirt Branson MO Guitar Banjo Retro Microphone picture