Your One-Stop Source For
Music Lyrics
Bass and Guitar Tabs
and More...
Music Lyrics Bass and Guitar Tabs

 

The Tabs Are Below

Learn To Read Tab
Chords Handbook
Corrections & Additions
Get Official Tab
Bad Religion tabs @ 911Tabs

SONG: leave mine to [ A COOL SONG TO PLAY NOT EASY BUT NOT HARD]

ARTIST:bad religion

ALBUM: stranger then fiction {sorry all the lines are screwed up but the tab is still RIGHT!} [X3] PLAY 3 TIMES

 

 

RIFF A

[X4]|

G|---------------------------------------|

D|---------------------------------------|

A|-55--55-------------------8--7------|

E |--------------6-5-1-3-8-5-----------|

 

 

RIFFB

[X3]|

G|------------------|---------------------------------- |

D|------------------|-----------------------------------|

A|-5--8-7---3-0-3|-- 1--1-1--1-1|--1--1-1--1-1--|

E|------------------|------------------|-----------------|

 

G|-----------------|------------------|-----------------|

D|-----------------|------------------|-----------------|

A|-0000--0000--|--0000--3-4----|-----------------|

E|-----------------|-------------------|-----------------|

RIFFC

G|-----------------|--------------|----------------------|

D|-----------------|---------------|---------------------|

A|--5-5--5-5-5-5|-3-3-3-3-3--|--1-1-1-1-1--------|

E|-----------------|---------------|----------------------|

 

G: ------------------------------------------------------|

D:-------------------------------------------------------|

A:--3-3-3-3-3|--1-1-1-1-0|---------------------------|

E:----------------------------|--1--1-1-1-1------------|

 

|1. |2. you can figure it out!

G:-------------|-------------|-------------|

D:-------------|-------------|-------------|

A:-------------|-----2-3-4-|------------ |

E:--3-3-3-3-3|-5----------|-5-5-5-5---|

NOW PLAY RIFF B[X4]--RIFF C--RIFF A

 

RIFF D

G----------------------------------------------------|

D----------------------------------------------------|

A-5-5-5-5-5|-3---------|-5-5-5-5-5|--1-----------|

E-----------------------------------------------------|

 

G- ----------|------------|-----------------------------|

D------------|------------|-----------------------------|

A-5-5-5-5-5|--3-------|-1-1-1-1---|-3-3-3-3-----|

E-------------|-----------|-----------------------------|

 

play RIFF B

 

RIFF D

G---------------------------------------------------------------------------------------------------------|

D---------------------------------------------------------------------------------------------------------|

A-5-5-5-5-5|-7-7-7-7-7-|-8-8-8-8-8|-7-7-7-7-7|-5-5-5-5-5|-3-3-3-3-3|-1-1-1-1-1|-3-3-3-3-3|

E----------------------------------------------------------------------------------------------------------|

 

G--------------------------------------------------------------------------------------------------------------|

D--------------------------------------------------------------------------------------------------------------|

A-5-5-5-5-5|-7-7-7-7-7|--8-8-8-8-8|-10-10-10-10-10|-5-5-5-5-5|-3-3-3-3-3|-1-1-1-1|-3-3-3-3-3|

E--------------------------------------------------------------------------------------------------------------|

 

now play RIFF A--RIFF B And finish on a|A|-5-|

IF YOU HAVE ANY BAD RELIGION bassTABS SEND ME THEM AT mchristensen@halnetcom.net [ANDREW]

 

 

 

 

 

Return to my Bad Religion bass tabs page

The Tablature is Copyright its respective owners.

Sign Up For My Newsletter
Subscribe | Unsubscribe

Site Map | Disclaimer | Privacy Policy | Media Kit | Submissions/Corrections

Website © 2000-2014 mattsmusicpage.com. All rights reserved.

Legal & DMCA: Matt's Music Page has been providing lyrics and tabs in a legal way, paying royalties each year to a few organizations. Then, all lyrics and tabs were removed from the site. Now, there's a new owner to the site, which purchased it August 26, 2014, and he is in negotiation to obtain licensing from BMI at the moment. If you have a specific DMCA request -- please do not hesitate to contact me via the contact button on top. I will do my very best to keep this site fully legal.

Get our toolbar!

 

VINTAGE SORRENTO MUSIC JEWELRY BOX
$45.0
VINTAGE SORRENTO MUSIC JEWELRY BOX picture


VINTAGE LACQUERED MUSIC BOX JAPAN
$25.99
VINTAGE LACQUERED MUSIC BOX JAPAN picture


Vintage Kehlsteinhaus Bavaria Germany Colorscope Cow Bell View Master Music Box
$8.99
Vintage Kehlsteinhaus Bavaria Germany Colorscope Cow Bell View Master Music Box picture


VINTAGE SCHMIDT Signed Collectible Musical Turning Clown
$9.99
VINTAGE  SCHMIDT Signed Collectible Musical Turning Clown picture


Vintage - Linen - Postcard - Stage - Radio City Music Hall - New York City
$3.75
Vintage - Linen - Postcard - Stage - Radio City Music Hall - New York City   picture