Your One-Stop Source For
Music Lyrics
Bass and Guitar Tabs
and More...
Music Lyrics Bass and Guitar Tabs

The Tabs Are Below

Learn To Read Tab
Chords Handbook
Corrections & Additions
Get Official Tab
Who tabs @ 911Tabs

From: MOKCLCP@delphi.com

Subject: Won't Get Fooled Again - The Who (ala Van Halen Live cover version)

 

WON'T GET FOOLED AGAIN - The Who

 

4/4 2

|------------------------------------------------|------------------------

|------------------------------------------------|--------------------5---

|--2---------------------------------------------|--------------------2---

|--2---------------------------------------------|------------------------

|--0---------------------------------------------|------------------------

|------------------------------------------------|------------------------

BPM - 138

 

3

------------------------|------------------------------------------------

--5-----5-----3-----2---|--3-----------------3-----3-----------2---------

--2-----2-----2-----2---|--2-----2-----2-----2-----2-----2-----2-----2---

------------------------|--3-----------3-----3-----3-----3-----------2---

------------------------|------------------------------------------------

------------------------|------------------------------------------------

 

 

4 5

|------------------------------------------------|------------------------

|--2-----2-----2-----2-----2-----------2---------|--------3-----3---------

|--2-----2-----2-----2-----2-----2-----2-----2---|--2-----2-----2-----2---

|--4-----------4-----------4-----4-----4-----4---|--3-----3-----------3---

|------------------------------------------------|------------------------

|------------------------------------------------|------------------------

 

 

6

------------------------|--------------------------5---------------------

--3-----3-----5---------|--5-----5-----5-----5-----5-----------3-----2---

--2-----2-----2-----2---|--2-----2-----2-----2-----2-----2-----2-----2---

--3-----3-----3-----3---|--------3---------------------------------------

------------------------|------------------------------------------------

------------------------|------------------------------------------------

 

7 8

|------------------------------------------------|------------------------

|--3-----3-----3-----3-----3-----3-----2---------|--2-----2-----2---------

|--2-----2-----2-----2-----2-----2-----2-----2---|--2-----2-----2-----2---

|--3-----------3-----3-----3-----3-----------3---|--4-----------4-----4---

|------------------------------------------------|------------------------

|------------------------------------------------|------------------------

 

 

9

------------------------|------------------------------------------------

--2-----2---------------|--------3-----3-----------3-----3-----3-----3---

--2-----2-----2-----2---|--2-----2-----2-----2-----2-----2-----2-----2---

--4-----4-----4-----4---|--3-----3-----3-----3-----3-----3-----3-----3---

------------------------|------------------------------------------------

------------------------|------------------------------------------------

 

 

10 11

|--5-----------------------5---------------------|--5---------------------

|--5-----3-----2-----------5-----3-----2-----2---|--5-----3-----2-----2---

|--2-----2-----2-----2-----2-----2-----2-----2---|--4-----2-----2-----2---

|--------------------2-----------------------3---|--------------------3---

|------------------------------------------------|------------------------

|------------------------------------------------|------------------------

 

 

12

------------------------|------------------------------------------------

--5-----3-----2---------|--------------3-----2-----------2-----3-----2---

--2-----2-----2-----2---|--2-----2-----2-----2-----2-----2-----2-----2---

--------------------3---|--2-----------------------2---------------------

------------------------|------------------------------------------------

------------------------|------------------------------------------------

 

 

13 14

|------------------------------------------------|--------------5-----5---

|--------2-----3-----2-----------2-----3-----2---|--------2-----3-----2---

|--2-----2-----2-----2-----2-----2-----2-----2---|--2-----2-----2-----2---

|--3-----------------------3---------------------|--2---------------------

|------------------------------------------------|------------------------

|------------------------------------------------|------------------------

 

 

15

--------5-----5---------|--------0-----5-----5-----5-----5-----5---------

--------2-----3-----2---|--2-----2-----5-----5-----5-----5-----5---------

--2-----2-----2-----2---|--2---------------------------------------------

--2---------------------|--3---------------------------------------------

------------------------|--------------------------------------------0--0

------------------------|--------------------------------------------0--0

 

 

16 17

|------------------------------------------------|--------3---------------

|------------------------------------------------|--------3---------------

|------------------------------------------------|--------0---------------

|--2---------------------------------------------|--------0---------------

|--2---------------------------------------------|------------------------

|--0---------------------------------------------|--------3-----------3---

 

 

18

--2-----------2---------|------------------------------------------------

--3-----------3---------|--2---------------------------------------------

--2-----------2-----2--2|--2---------------------------------------------

--0-----------0-----2--2|--2---------------------------------------------

--0-----------------0--0|--0---------------------------------------------

------------------------|------------------------------------------------

 

 

19 20

|--------3-----------------2---------------------|------------------------

|--------3-----------------3---------------------|------------------------

|--------0-----------------2-----------------2--2|--2---------------------

|--------0--------------0--0-----------0-----2--2|--2---------------------

|--------2--------------0--------------------0--0|--0---------------------

|--3-----------------3---------------------------|------------------------

 

Return to my to my Who tabs page

The Tablature is Copyright its respective owners.