Your One-Stop Source For
Music Lyrics
Bass and Guitar Tabs
and More...
Music Lyrics Bass and Guitar Tabs

 

The Tabs Are Below

Learn To Read Tab
Chords Handbook
Corrections & Additions
Get Official Tab
Who tabs @ 911Tabs

Underture

By The Who

>From Tommy, 1969

Written by Pete Townshend ©1969 Fabulous Music Ltd.

 

==============

transcribed by

litgo@aol.com 08-26-2001

==============

 

Three guitars on record (two 12-string acoustic; one 6-string electric)

Tune down 2 whole steps: C F Bb Eb A C

(left ch 12-str acoustic, drop tuning: Bb F Bb Eb A C)

Arranged for one guitar, with two- and three-guitar variations noted

 

 

[strum down slowly to arpeggiate chord]

|4-------|5---0--|4----|5--0--|4-----|5--0--|4-------|5---0--|

|5-------|5------|5----|5-----|5-----|5-----|5-------|5------|

|4-------|4------|4----|4-----|4-----|4-----|4-------|4------|

|0-------|0------|0----|0-----|0-----|0-----|0-------|0------|

|--------|-------|-----|------|------|------|--------|-------|

|--------|-------|-----|------|------|------|--------|-------|

 

|4-------|0---5--|4----|0--5--|4-----|0--5--|4-------|0---5--|

|5-------|5------|5----|5-----|5-----|5-----|5-------|5------|

|4-------|4------|4----|4-----|4-----|4-----|4-------|4------|

|0-------|0------|0----|0-----|0-----|0-----|0-------|0------|

|--------|-------|-----|------|------|------|--------|-------|

|--------|-------|-----|------|------|------|--------|-------|

|[bass] |

|----9---|----7--|-----|------|------|------|----9---|----7--|

|---9-9--|---7---|-----%------|------%------|---9-9--|---7---|

|7-----7-|5----5-|-----|------|------|------|7-----7-|5----5-|

|--------|-------|-----|------|------|------|--------|-------|

 

|2-------|5---0--|4-------|0---5---|4-------|0---5---|

|3-------|3---3--|5-------|5-------|5-------|5-------|

|2-------|2---2--|4-------|4-------|4-------|4-------|

|0-------|0---0--|0-------|0-------|0-------|0-------|

|--------|-------|--------|--------|--------|--------|

|--------|-------|--------|--------|--------|--------|

| |

|----7---|----7--|----9---|----9---|----9---|----9---|

|---7-7--|---7---|---9-9--|---9----|---9-9--|---9----|

|5-----5-|5----5-|7-----7-|7-----7-|7-----7-|7-----7-|

|--------|-------|--------|--------|--------|--------|

 

|4-------|0---5---|4--------------|---------------|

|5-------|5-------|5--------------|5-5-5----------|

|4-------|4-------|4-------4-4-4-4|4-4-4-4-4-4-4--|

|0-------|0-------|0-------0-0-0-0|0-0-0-0-0-0-0--|

|--------|--------|---------------|---------------|

|--------|--------|---------------|---------------|

| |

|----9---|----9---|---------------|---------------|

|---9-9--|---9----|---------------|---------------|

|7-----7-|7-----7-|7-7-7-7-7-7-7-7|7-7-7-7-7-7-7-5|

|--------|--------|---------------|---------------|

 

[0:46]

|--------|-------------|--------|-------------|---------|---------------|

|--------|-------------|--------|-------------|---------|---------------|

|--------|-------------|--------|-------------|---------|---------------|

|2-0-----|--2-0--------|2-0-----|--2-0--------|0--------|--0------------|

|--------|------3-2-0--|--------|------3-2-0--|--3------|-----3-2-0---0-|

|--------|------------3|--------|------------3|---------|-----------3---|

| | |

|--------|-------------|--------|-------------|---------|---------------|

|--------|-------------|--------|-------------|---------|---------------|

|7-5-----|--7-5-3-2-0--|7-5-----|--7-5-3-2-0--|5-3------|3-5--3-2-0-----|

|--------|------------3|--------|------------3|---------|-----------3-5-|

 

|----------------|---------------|---------------|---------------|

|----------------|---------------|---------------|---------------|

|----------------|---------------|---------------|---------------|

|------------4-4-|4-4-4-4-4-4-4-4|4-4-4-4-4-4-4-4|4-4-4-4-4-4-4--|

|2-2-2-2-2-2-2-2-|2-2-2-2-2-2-2-2|2-2-2-2-2-2-2-2|2-2-2-2-2-2-2-0|

|----------------|---------------|---------------|---------------|

| |

|----------------|---------------|---------------|---------------|

|----------------|---------------|---------------|---------------|

|----------------|---------------|---------------|---------------|

|7-7-7-7-7-7-7-7-|7-7-7-7-7-7-7-7|7-7-7-7-7-7-7-7|7-7-7-7-7-7-7-5|

 

[1:03]

|4---2------|-4--2--5---|4---2------|-4--2--5---|

|5---3------|-5--3--5---|5---3------|-5--3--5---|

|4---2------|-4--2--6---|4---2------|-4--2--6---|

|0-0-0-00000|00-00-00-00|0-0-0-00000|00-00-00-00|

|-----------|-----------|-----------|-----------|

|-----------|-----------|-----------|-----------|

| |

|-----------|-----------|-----------|-----------|

|-----------|-----------|-----------|-----------|

|5-5-5-55555|------%----|-----%-----|-----%-----|

|-----------|-----------|-----------|-----------|

 

|6---4------|-6--4--6----|6---4------|-6--6--6----|6-----6---6|-6--6---6-6-6-|

|7---5------|-7--5--7----|7---5------|-7--7--7----|7-----6---7|-6--6---6-6-6-|

|6---4------|-6--4--6----|6---4------|-6--6--6----|6-----7---6|-7--7---7-7-7-|

|0-0-0-00000|00-00-00-0-0|0-0-0-00000|00-00-00-0-0|0-000-0-000|00-00--0-00-0-|

|-----------|------------|-----------|------------|-----------|--------------|

|-----------|------------|-----------|------------|-----------|--------------|

 

|6-----6---6|-6--6-------|7-------|--------|

|7-----6---7|-6--6-------|8-------|--------|

|6-----7---6|-7--7-------|7-------|--------|

|0-000-0-000|00-00--0000-|00000000|00000000|

|-----------|------------|--------|--------|

|-----------|------------|--------|--------|

 

|7---8---|7-------------------|7---8----|10------|--------|

|8---8---|8---10-(8)-10-8-----|8---8----|8-------|--------|

|7---7---|7---7---7---7-7---7-|7---7----|7-------|--------|

|00000000|00-00---0---0-0---0-|00000000-|00000000|00000000|

|--------|--------------------|---------|--------|--------|

|--------|--------------------|---------|--------|--------|

 

|7---8-----|-7--8--5---|7---8---|10-------|

|8---8-----|-8--8--6---|8---8---|10-------|

|7---9-----|-7--9--5---|7---9---|11-------|

|0-0-000000|00-00-00-00|0---0---|-00000000|

|----------|-----------|--------|---------|

|----------|-----------|--------|---------|

 

|7---8-----|-7--8--5---|7---8---|10-------|

|8---8-----|-8--8--6---|8---8---|10-------|

|7---9-----|-7--9--5---|7---9---|11-------|

|0-0-000000|00-00-00-00|0---0---|-00000000|

|----------|-----------|--------|---------|

|----------|-----------|--------|---------|

 

|-11------|10-------|8--------|10-------|11---10---|11---10---|

|-12------|10-------|8--------|10-------|12---10---|12---10---|

|-11------|11-------|9--------|11-------|11---11---|11---11---|

|0-0000000|-00000000|0-0000000|-00000000|-0000-0000|-0000-0000|

|---------|---------|---------|---------|----------|----------|

|---------|---------|---------|---------|----------|----------|

 

|11--10--11--10-|---------------|---------------|

|12--10--12--10-|---------------|---------------|

|11--11--11--11-|-------------4-|4-4-4-4-4-4-4-4|

|-0-0-0-0-0-0-00|-----------4-4-|4-4-4-4-4-4-4-4|

|---------------|2--2-2-2-2-2-2-|2-2-2-2-2-2-2-2|

|---------------|---------------|---------------|

 

[2:05]

Ahhh...

|00000000|---%----|----%---|----%---|---%----|----%---|----%---|-----%--|

|--------|--------|--------|--------|--------|--------|--------|--------|

|--------|--------|--------|--------|--------|--------|--------|--------|

|--------|--------|--------|--------|--------|--------|--------|--------|

|--------|--------|--------|--------|--------|--------|--------|--------|

|--------|--------|--------|--------|--------|--------|--------|--------|

| |

|--------|--------|--------|--------|--------|--------|--------|--------|

|--------|--------|--------|--------|--------|--------|--------|--------|

|-----999|9.......|9.......|8.......|12......|11......|9.......|8.......|

|--------|--------|--------|--------|--------|--------|--------|--------|

|--------|--------|--------|--------|--------|--------|--------|--------|

|--------|--------|--------|--------|--------|--------|--------|--------|

| |

|0-......|--------|--------|--------|--------|--------|--------|--------|

|17......|----%---|----%---|---%----|---%----|----%---|---%----|----%---|

|16......|--------|--------|--------|--------|--------|--------|--------|

|--------|--------|--------|--------|--------|--------|--------|--------|

|--------|--------|--------|--------|--------|--------|--------|--------|

|--------|--------|--------|--------|--------|--------|--------|--------|

 

|---%----|----%---|----%---|-----%--|---%----|----%---|----%---|-----%--|

|--------|--------|--------|--------|--------|--------|--------|--------|

|--------|--------|--------|--------|--------|--------|--------|--------|

|--------|--------|--------|--------|--------|--------|--------|--------|

|--------|--------|--------|--------|--------|--------|--------|--------|

|--------|--------|--------|--------|--------|--------|--------|--------|

| |

|--------|--------|--------|--------|--------|--------|--------|--------|

|--------|--------|--------|--------|--------|--------|--------|--------|

|12......|11......|9.......|8.......|12......|11......|9...8...|5...4...|

|--------|--------|--------|--------|--------|--------|--------|--------|

|--------|--------|--------|--------|--------|--------|--------|--------|

|--------|--------|--------|--------|--------|--------|--------|--------|

| | |

|--------|--------|--------|--------|--------|--------|--------|--------|

|---%----|----%---|---%----|----%---|---%----|----%---|---%----|----%---|

|--------|--------|--------|--------|--------|--------|--------|--------|

|--------|--------|--------|--------|--------|--------|--------|--------|

|--------|--------|--------|--------|--------|--------|--------|--------|

|--------|--------|--------|--------|--------|--------|--------|--------|

 

|-----%----|----%-----|

|----------|----------|

|----------|----------|

|----------|----------|

|----------|----------|

|----------|----------|

| |

|----------|----------|

|----------|----------|

|2/4...2...|0...------|

|----------|----4-4-0-|

|----------|----------|

|----------|----------|

| |

|----------|----------|

|-----%----|----%-----|

|----------|----------|

|----------|----------|

|----------|----------|

|----------|----------|

 

[2:38]

|4-------|5---0--|4----|5---0--|4-----|5---0--|4-------|5---0--|

|5-------|5---5--|5----|5---5--|5-----|5---5--|5-------|5------|

|4-------|4---4--|4----|4---4--|4-----|4---4--|4-------|4------|

|0-------|0---0--|0----|0---0--|0-----|0---0--|0-------|0------|

|--------|-------|-----|-------|------|-------|--------|-------|

|--------|-------|-----|-------|------|-------|--------|-------|

 

|2-------|5---0--|4-------|5---0--|4-------|5---0--|

|3-------|3---3--|5-------|5---5--|5-------|5---5--|

|2-------|2---2--|4-------|4---4--|4-------|4---4--|

|0-------|0---0--|0-------|0---0--|0-------|0---0--|

|--------|-------|--------|-------|--------|-------|

|--------|-------|--------|-------|--------|-------|

 

[3:06]

|4-------|--------|3-------0------|3-------3------|

|5-------|--------|3-------3------|3-------3------|

|4-------|--------|2-------2------|0-------0------|

|0---2222|22222222|0-0-0-0-0-0-0-0|0-0-0-0-0-0-0-0|

|--------|--------|---------------|---------------|

|--------|--------|---------------|(3)------------|

 

|2-------3---3-2|----------------|---------------|

|3-------3---3-3|----------------|---------------|

|2-------2---2-2|--------------4-|4-4-4-4-4-4-4--|

|0-0-0-0-0-0-0-0|4-4-4-4-4-4-4-4-|4-4-4-4-4-4-4--|

|---------------|2-2-2-2-2-2-2-2-|2-2-2-2-2-2-2-0|

|---------------|----------------|---------------|

 

[3:21]

|------|--------------|-------|-------------|-------|---------------|

|------|--------------|-------|-------------|-------|---------------|

|------|--------------|-------|-------------|-------|---------------|

|2-0---|--2-0---------|2-0----|--2-0--------|0------|--0------------|

|------|------3-2-0---|-------|------3-2-0--|--3----|-----3-2-0---0-|

|------|------------3-|-------|------------3|-------|-----------3---|

 

|---------------|---------------|---------------|---------------|

|---------------|---------------|---------------|---------------|

|---------------|---------------|---------------|---------------|

|-----------4-4-|4-4-4-4-4-4-4-4|4-4-4-4-4-4-4-4|4-4-4-4-4-4-4--|

|2--2-2-2-2-2-2-|2-2-2-2-2-2-2-2|2-2-2-2-2-2-2-2|2-2-2-2-2-2-2-0|

|---------------|---------------|---------------|---------------|

 

[3:39]

|4---2------|-4--2--5---|4---2------|-4--2--4---|

|5---3------|-5--3--5---|5---3------|-5--3--5---|

|4---2------|-4--2--6---|4---2------|-4--2--4---|

|0-0-0-00000|00-00-00-00|0-0-0-00000|00-00-00-00|

|-----------|-----------|-----------|-----------|

|-----------|-----------|-----------|-----------|

 

|6---4------|-6--4--6----|6-----6---6|-6------6-6---|

|7---5------|-7--5--7----|7-----6---7|-6------7-6---|

|6---4------|-6--4--6----|6-----7---6|-7------6-7---|

|0-0-0-00000|00-00-00-0-0|0-000-0-000|00-00--0-00-0-|

|-----------|------------|-----------|--------------|

|-----------|------------|-----------|--------------|

 

|6-----6---6|-6-----6-6--|7-------|--------|

|7-----6---7|-6-----6-6--|8-------|--------|

|6-----7---6|-7-----7-7--|7-------|--------|

|0-000-0-000|00-00--0000-|00000000|00000000|

|-----------|------------|--------|--------|

|-----------|------------|--------|--------|

 

|7---8---|7-------------------|7---8----|7-------|--------|

|--------|----10-----10-----8-|--8----8-|--------|--------|

|--------|--------------------|---------|--------|--------|

|--------|--------------------|---------|--------|00000000|

|--------|--------------------|---------|--------|--------|

|--------|--------------------|---------|--------|--------|

| |

|7---8---|7-------------------|7---8----|10------|--------|

|8---8---|8---10-(8)-10-8-----|8---8----|8-------|--------|

|7---7---|7---7---7---7-7---7-|7---7----|7-------|--------|

|00000000|00-00---0---0-0---0-|00000000-|00000000|00000000|

|--------|--------------------|---------|--------|--------|

|--------|--------------------|---------|--------|--------|

 

|7---5-----|-7--8--5---|7---8---|5--------|

|8---6-----|-8--8--6---|8---8---|6--------|

|7---5-----|-7--9--5---|7---9---|5--------|

|0-0-000000|00-00-00-00|00000000|-00000000|

|----------|-----------|--------|---------|

|----------|-----------|--------|---------|

 

|7---8-----|-7--8--5---|7---8---|10-------|

|8---8-----|-8--8--6---|8---8---|10-------|

|7---9-----|-7--9--5---|7---9---|11-------|

|0-0-000000|00-00-00-00|00000000|-00000000|

|----------|-----------|--------|---------|

|----------|-----------|--------|---------|

|[drop tuning gtr] |

|----------|-----------|--------|---------|

|----------|-----------|--------|---------|

|----------|-----------|--------|---------|

|----------|-----------|--------|---------|

|----------|-----------|--------|---------|

|----------|-----------|--------|000000000|

 

|-11------|10-------|8--------|10-------|7---10---|7---10---|

|-12------|10-------|8--------|10-------|7---10---|7---10---|

|-11------|11-------|9--------|11-------|8---11---|8---11---|

|0-0000000|-00000000|0-0000000|-00000000|0000-0000|0000-0000|

|---------|---------|---------|---------|---------|---------|

|---------|---------|---------|---------|---------|---------|

 

|11--10--11--10-|11--10--11--10-|

|12--10--12--10-|12--10--12--10-|

|11--11--11--11-|11--11--11--11-|

|-0-0-0-0-0-0-00|-0-0-0-0-0-0-00|

|---------------|---------------|

|---------------|---------------|

 

[4:37]

|4-------|5---0--|4----|5---0--|4-----|0---5--|4-------|0---5--|

|5-------|5---5--|5--55|5---5--|5-----|5------|5-------|5---5--|

|4-------|4---4--|4----|4---4--|4-----|4------|4-------|4------|

|0-------|0---0--|0----|0---0--|0-----|0------|0-------|0------|

|--------|-------|-----|-------|------|-------|--------|-------|

|--------|-------|-----|-------|------|-------|--------|-------|

 

|2-------|3---2--|4-------|0---5--|4-------|0---5--|4-------|0---5--|

|3-------|3---3--|5-------|5------|5-------|5------|5-------|5------|

|2-------|2---2--|4-------|4------|4-------|4------|4-------|4------|

|0-------|0---0--|0-------|0------|0-------|0------|0-------|0------|

|--------|-------|--------|-------|--------|-------|--------|-------|

|--------|-------|--------|-------|--------|-------|--------|-------|

 

|4-------|0------|4-------|--------|

|5-------|5------|5---5555|55555555|

|4-------|4------|4---4444|44444444|

|0-------|0------|0---2222|22222222|

|--------|-------|--------|--------|

|--------|-------|--------|--------|

| |

|--------|-------|--------|--------|

|--------|-------|--------|--------|

|--------|-------|--777777|77777777|

|--------|-------|--------|--------|

 

[5:12]

|5--4--5-|-4--7---|5--4--0-|-0--0--0|--0--0--|

|-5--5--5|--5--5--|-5--5--5|--5--5--|5--5--5-|

|--4--4--|4--4--4-|--4--4--|4--4--4-|-4--4--4|

|--------|--------|--------|--------|--------|

|--------|--------|--------|--------|--------|

|--------|--------|--------|--------|--------|

 

|0--0----|5--0--0-|-0--0--0|--------|--------|

|-3--3---|-5--5--5|--5--5--|5-------|--------|

|--2--2--|--4--4--|4--4--4-|--------|--------|

|--------|--------|--------|--------|--------|

|--------|--------|--------|--------|--------|

|--------|--------|--------|--------|--------|

 

[5:30]

|------|--------------|-------|-------------|-------|---------------|

|------|--------------|-------|-------------|-------|---------------|

|------|--------------|-------|-------------|-------|---------------|

|2-0---|--2-0---------|2-0----|--2-0--------|0------|--0------------|

|------|------3-2-0---|-------|------3-2-0--|--3----|-----3-2-0---0-|

|------|------------3-|-------|------------3|-------|-----------3---|

 

|---------------|---------------|---------------|---------------|

|---------------|---------------|---------------|---------------|

|-----------4-4-|4-4-4-4-4-4-4-4|4-4-4-4-4-4-4-4|4-4-4-4-4-4-4-4|

|-----------4-4-|4-4-4-4-4-4-4-4|4-4-4-4-4-4-4-4|4-4-4-4-4-4-4-4|

|2--2-2-2-2-2-2-|2-2-2-2-2-2-2-2|2-2-2-2-2-2-2-2|2-2-2-2-2-2-2-2|

|---------------|---------------|---------------|---------------|

 

|---------------|---------------|---------------|---------------|

|---------------|---------------|---------------|---------------|

|4-4-4-4-4-4-4-4|4-4-4-4-4-4-4-4|4-4-4-4-4-4-4-4|4-4-4-4-4-4-4--|

|4-4-4-4-4-4-4-4|4-4-4-4-4-4-4-4|4-4-4-4-4-4-4-4|4-4-4-4-4-4-4--|

|2-2-2-2-2-2-2-2|2-2-2-2-2-2-2-2|2-2-2-2-2-2-2-2|2-2-2-2-2-2-2-0|

|---------------|---------------|---------------|---------------|

 

[5:54]

|5---2------|-4--2--5---|4---2------|-4--2--4---|

|5---3------|-5--3--5---|5---3------|-5--3--5---|

|6---2------|-4--2--6---|4---2------|-4--2--4---|

|0-0-0-00000|00-00-00-00|0-0-0-00000|00-00-00-00|

|-----------|-----------|-----------|-----------|

|-----------|-----------|-----------|-----------|

 

|6---4------|-6--4--6----|6-----6---6|-6------6-6---|

|7---5------|-7--5--7----|7-----6---7|-6------7-7---|

|6---4------|-6--4--6----|6-----7---6|-7------6-6---|

|0-0-0-00000|00-00-00-0-0|0-000-0-000|00-00--0-00-0-|

|-----------|------------|-----------|--------------|

|-----------|------------|-----------|--------------|

 

|7---8---|7--5--88|7-8----5|5-------|

|8---8---|8--6--88|8-8----6|6-------|

|7---7---|7--5--99|7-7----5|5-------|

|00000000|00000000|00000000|00000000|

|--------|--------|--------|--------|

|--------|--------|--------|--------|

 

|7---8---|-7-8-5---|7---8---|10-------|

|8---8---|-8-8-6---|8---8---|10-------|

|7---9---|-7-9-5---|7---9---|11-------|

|00000000|000000000|00000000|0-0000000|

|--------|---------|--------|---------|

|--------|---------|--------|---------|

 

|-11------|10-------|8--------|10-(8)---|10--11--10--11--|

|-12------|10-------|8--------|10-(8)---|10--12--10--12--|

|-11------|11-------|9--------|11-(9)---|11--11--11--11--|

|0-0000000|-00000000|0-0000000|-00000000|-0-0-0-0-0-0-0-0|

|---------|---------|---------|---------|----------------|

|---------|---------|---------|---------|----------------|

 

|10--11--10--11--|---------------|---------------|

|10--12--10--12--|---------------|---------------|

|11--11--11--11--|-------------4-|4-4-4-4-4-4-4-4|

|-0-0-0-0-0-0-0-0|-----------4-4-|4-4-4-4-4-4-4-4|

|----------------|2--2-2-2-2-2-2-|2-2-2-2-2-2-2-2|

|----------------|---------------|---------------|

 

[6:38]

|---0--|-------<7>|------<7>---|-------7--|---0---7--|---0-----|

|--0-0-|--0-<7>---|-0-<7>---0--|-0--<7>--0|--0-<7>---|--0-0----|

|-8---8|-6--------|8-------8--/|6-------6-|/8----8---|-6---6---|

|9-----|7--7-----9|-----------7|----------|9---------|7--------|

|------|----------|------------|----------|----------|---------|

|------|----------|------------|----------|----------|---------|

 

|---0---0-|---0---0--|--0-----0---|-0-----0--|-0-----0--|-0---0---|

|--0---0--|--0---0---|---0-----0--|--0-----0-|--0-----0-|--0---0--|

|-4---3---|-4---3----|------3--3-3|4---4-3--3|3---3-3---|3-4-4-2-2|

|5---4----|5---4----4|5-5---4--4-4|5---5-4--4|4---4-4---|4-6-6-4-4|

|---------|----------|------------|----------|----------|---------|

|---------|----------|------------|----------|----------|---------|

 

|--0----0-|-0-----0--|--0------0--|0---------|--------|--------|--------|

|---0----0|---0----0-|---0------0-|---0--0-0-|0-0-0-0-|0-0-0-0-|0-0-0-0-|

|4-4--2-2-|4-4-4-7-7-|8-8-8-7-7-7/|7-7-7-7-7-|7-7-7-7-|6-6-6-6-|6-6-6-6-|

|6-6--4-4-|6-6-6-8-8-|9-9-9-8-8-8/|9-9-9-9-9-|9-9-9-9-|7-7-7-7-|7-7-7-7-|

|---------|----------|------------|----------|--------|--------|--------|

|---------|----------|------------|----------|--------|--------|--------|

 

|--------|--------|--------|----------|----------|---------|

|0-0-0-0-|0-0-0-0-|--------|----------|----------|---------|

|8-8-8-8-|6-6-6-6-|7-7-7-7-|7-7-7-7--9|9--9--9---|10-10----|

|9-9-9-9-|7-7-7-7-|9-9-9-9-|9-9-9-9-11|11-11-11--|12-12----|

|--------|--------|--------|----7-7--9|9--9--9---|10-10----|

|--------|--------|--------|----------|----------|---------|

 

|--------|----------|---------------|---------------|---------------|

|--------|----------|---------------|---------------|---------------|

|12-10---|9--7---5-5|---------------|---------------|---------------|

|14-12---|11-9---7-7|4-4-4-4-4-4-4-4|4-4-4-4-4-4-4-4|4-4-4-4-4-4-4-4|

|12-10---|9--7---5-5|2-2-2-2-2-2-2-2|2-2-2-2-2-2-2-2|2-2-2-2-2-2-2-2|

|--------|----------|---------------|---------------|---------------|

 

|--------------|---------------|---------------|---------------|---------------|

|--------------|---------------|---------------|---------------|---------------|

|44-4-4-4-4-4-4|4-4-4-4-4-4-4-4|4---4---4---4--|4-4-4-4-4-4-4-4|4-4-4-4-4-4-4-4|

|44-4-4-4-4-4-4|4-4-4-4-4-4-4-4|4-4-4-4-4-4-4-4|4-4-4-4-4-4-4-4|4-4-4-4-4-4-4-4|

|22-2-2-2-2-2-2|2-2-2-2-2-2-2-2|2-2-2-2-2-2-2-2|2-2-2-2-2-2-2-2|2-2-2-2-2-2-2-2|

|--------------|---------------|---------------|---------------|---------------|

 

[7:32]

|4----|5---0--|4----|5---0--|4-----|5---0--|4-------|0---5--|

|5----|5---5--|5----|5---5--|5-----|5---5--|5-------|5---5--|

|4----|4---4--|4----|4---4--|4-----|4---4--|4-------|4---4--|

|0----|0---0--|0----|0---0--|0-----|0---0--|0-------|0------|

|-----|-------|-----|-------|------|-------|--------|-------|

|-----|-------|-----|-------|------|-------|--------|-------|

 

|2----|5---0--|4-------|5---0--|4-------|5---0--|4-------|-------|

|3----|3---3--|5-------|5------|5-------|5------|5---5-5-|5-5----|

|2----|2---2--|4-------|4------|4-------|4------|4---4-4-|4-4----|

|0----|0---0--|0-------|0------|0-------|0------|0-------|-------|

|-----|-------|--------|-------|--------|-------|--------|-------|

|-----|-------|--------|-------|--------|-------|--------|-------|

 

[8:01]

|-------|----------|-------|----------|-------|----------|

|-------|----------|-------|----------|-------|----------|

|-------|----------|-------|----------|-------|----------|

|2--2-2-|0--0-0----|2--2-2-|0--0-0----|2--2-2-|0--0-0----|

|-------|------4-2-|-------|------4-2-|-------|------4-2-|

|-------|----------|-------|----------|-------|----------|

| |

|-------|----------|-------|----------|--0-0-0|5--7---5--|

|-------|----------|-------|----------|-5---5-|-5--5---5-|

|-------|----------|-------|----------|4--4---|--4--4----|

|-------|----------|-------|----------|-------|----------|

|-------|----------|-------|----------|-------|----------|

|-------|----------|-------|----------|-------|----------|

 

|-------|--------------|-------------|---------------|---------|----------|

|-------|--------------|-------------|---------------|---------|----------|

|-------|--------------|-------------|---------------|---------|----------|

|2--2-2-|0----0-0------|2----2--2----|0--0-0---------|2--2-2---|0--0-0----|

|-------|--------4-2---|-------------|------4-2------|---------|------4-2-|

|-------|--------------|-------------|---------------|---------|----------|

| |

|-0--0--|--------------|-------------|---------------|---------|----------|

|-------|--------------|-------------|---------------|---------|----------|

|4--4---|--------------|-------0-2-0-|0--------------|-------2-|0--------4|

|------0|2-4-5-4-2---2-|2-0h2h4-----4|--4-2-0----2---|2-2-2h4--|--4-2-0-2-|

|-------|---------2-4--|-------------|--------2h4-4-0|---------|----------|

|-------|--------------|-------------|---------------|---------|----------|

 

|-------|----------|-------|------------|4------|2---------|

|-------|----------|-------|------------|5------|3---------|

|-------|----------|-------|------------|4------|2---------|

|2--2-2-|0--0-0----|2--2-2-|0--0-0------|0-(2-2)|0-(0-0----|

|-------|------4-2-|-------|------4-2---|-------|------4-2)|

|-------|----------|-------|------------|-------|----------|

| |

|4------|0---5-----|4------|0-----5-----|4------|----------|

|5------|5---5-----|5------|5-----5-----|5------|----------|

|4------|4---4-----|4------|4-----4-----|4------|----------|

|0------|0---0-----|0------|0-----0-----|0------|2-2-2-2---|

|-------|----------|-------|------------|-------|----------|

|-------|----------|-------|------------|-------|----------|

| |

|0------|----12-12-|12-12--|12-10---9---|7--7---|5----4--0-|

|-------|----------|-----12|------12-12-|------5|----5-----|

|-------|----------|-------|------------|-------|----------|

|-------|----------|-------|------------|-------|----------|

|-------|----------|-------|------------|-------|----------|

|-------|----------|-------|------------|-------|----------|

 

|4-------|2-------|4---2---|4---2---|5-4-2-4-|5-4-2-4-|5-4-2-4-|5-4-----|

|5-------|3-------|5---3---|5---3---|5-5-3-5-|5-5-3-5-|5-5-3-5-|5-5-----|

|4-------|2-------|4---2---|4---2---|6-4-2-4-|6-4-2-4-|6-4-2-4-|6-4-----|

|0-------|0-------|0-0-0-0-|0-0-0-0-|0-0-0-0-|0-0-0-0-|0-0-0-0-|0-0-0000|

|--------|--------|--------|--------|--------|--------|--------|--------|

|--------|--------|--------|--------|--------|--------|--------|--------|

| |

|--------|--------|--------|--------|--------|--------|--4-2-4-|5-4-----|

|--------|--------|--------|--------|--------|--------|--5-3-5-|5-5-----|

|--------|--------|--------|--------|--------|--------|--4-2-4-|6-4-----|

|22222222|00000000|--------|--------|--------|0-0-0-0-|0-0-0-0-|0-0-0000|

|--------|--------|--------|--------|--------|--------|--------|--------|

|--------|--------|--------|--------|--------|--------|--------|--------|

| |

|2/-4----|--------|

|--------|--------|

|--------|--------|

|--------|--------|

|--------|--------|

|--------|--------|

 

[8:50]

|------|--------------|-------|-------------|-------|---------------|

|------|--------------|-------|-------------|-------|---------------|

|------|--------------|-------|-------------|-------|---------------|

|2-0---|--2-0---------|2-0----|--2-0--------|0------|--0------------|

|------|------3-2-0---|-------|------3-2-0--|--3----|-----3-2-0---0-|

|------|------------3-|-------|------------3|-------|-----------3---|

 

|---------------|---------------|---------------|---------------|

|---------------|---------------|---------------|---------------|

|---------------|---------------|---------------|---------------|

|---------------|4-4-4-4-4-4-4-4|4-4-4-4-4-4-4-4|4-4-4-4-4-4-4-4|

|2-2-2-2-2-2-2-2|2-2-2-2-2-2-2-2|2-2-2-2-2-2-2-2|2-2-2-2-2-2-2-2|

|---------------|---------------|---------------|---------------|

| |

|---------------|7------7-7-7---|--7-7---7-7-7--|---7-7-7-------|

|---------------|7------7-7-7---|--7-7---7-7-7--|---7-7-7-------|

|---------------|---------------|---------------|---8-8-8-------|

|---------------|-------9-9-9---|9-9-9---9-9-9--|---9-9-9-------|

|---------------|---------------|---------------|---------------|

|---------------|---------------|---------------|---------------|

 

|---------------|---------------|---------------|---------------|

|---------------|---------------|---------------|---------------|

|4-4-4-4-4-4-4-4|4-4-4-4-4-4-4-4|4-4-4-4-4-4-4-4|4-4-4-4-4-4-4-4|

|4-4-4-4-4-4-4-4|4-4-4-4-4-4-4-4|4-4-4-4-4-4-4-4|4-4-4-4-4-4-4-4|

|2-2-2-2-2-2-2-2|2-2-2-2-2-2-2-2|2-2-2-2-2-2-2-2|2-2-2-2-2-2-2-2|

|---------------|---------------|---------------|---------------|

| |

|--7-7-7-7-7-7--|-7--7-----7-7-7|7-7-7-7-7-7-7-7|7-7-7-7-7-7-7-7|

|--7-7-7-7-7-7--|-7--7-----7-7-7|7-7-7-7-7-7-7-7|7-7-7-7-7-7-7-7|

|--8-8-8-8-8-8--|-9--8-----8-8-8|8-8-8-8-8-8-8-8|8-8-8-8-8-8-8-8|

|--9-9-9-9-9-9--|-9--9-----9-9-9|9-9-9-9-9-9-9-9|9-9-9-9-9-9-9-9|

|---------------|---------------|---------------|---------------|

|---------------|---------------|---------------|---------------|

 

|---|---|---|---|---|---|---|---------------|

|---|---|---|---|---|---|---|---------------|

|-%-|-%-|-%-|-%-|-%-|-%-|-%-|4-4-4-4-4-4----|

|---|---|---|---|---|---|---|4-4-4-4-4-4----|

|---|---|---|---|---|---|---|2-2-2-2-2-2-0-0|

|---|---|---|---|---|---|---|---------------|

| |

|---|---|---|---|---|---|---|7-7-7-7-7-7----|

|---|---|---|---|---|---|---|7-7-7-7-7-7----|

|-%-|-%-|-%-|-%-|-%-|-%-|-%-|8-8-8-8-8-8----|

|---|---|---|---|---|---|---|9-9-9-9-9-9----|

|---|---|---|---|---|---|---|------------0-0|

|---|---|---|---|---|---|---|---------------|

 

[9:28]

|4-------|5---0--|4----|5---0--|4-----|5---0--|4-------|5---0--|

|5-------|5---5--|5----|5---5--|5-----|5---5--|5-------|5---5--|

|4-------|4---4--|4----|4---4--|4-----|4---4--|4-------|4---4--|

|0-------|0---0--|0----|0---0--|0-----|0---0--|0-------|0---5--|

|--------|-------|-----|-------|------|-------|--------|-------|

|--------|-------|-----|-------|------|-------|--------|-------|

 

|4---2------|-4--2--5---|4---2------|-4--2--5---|

|5---3------|-5--3--5---|5---3------|-5--3--5---|

|4---2------|-4--2--6---|4---2------|-4--2--6---|

|0-0-0-00000|00-00-00-00|0-0-0-00000|00-00-00-00|

|-----------|-----------|-----------|-----------|

|-----------|-----------|-----------|-----------|

 

|4---2------|-4--2--5---|4---2------|-4--2--5---|

|5---3------|-5--3--5---|5---3------|-5--3--5---|

|4---2------|-4--2--6---|4---2------|-4--2--6---|

|0-0-0-00000|00-00-00-00|0-0-0-00000|00-00-00-00|

|-----------|-----------|-----------|-----------|

|-----------|-----------|-----------|-----------|

 

|-----11----|11---------

|11---11----|11---------

|11---11----|11---------

|12---12----|12---------

|-----------|-----------

|(2)-(2)----|(2)--------

 

 

=============

litgo@aol.com

 

 

Return to my to my Who tabs page

The Tablature is Copyright its respective owners.

Sign Up For My Newsletter
Subscribe | Unsubscribe

Site Map | Disclaimer | Privacy Policy | Media Kit | Submissions/Corrections

Website © 2000-2014 mattsmusicpage.com. All rights reserved.

Legal & DMCA: Matt's Music Page has been providing lyrics and tabs in a legal way, paying royalties each year to a few organizations. Then, all lyrics and tabs were removed from the site. Now, there's a new owner to the site, which purchased it August 26, 2014, and he is in negotiation to obtain licensing from BMI at the moment. If you have a specific DMCA request -- please do not hesitate to contact me via the contact button on top. I will do my very best to keep this site fully legal.

Get our toolbar!

 

ROLLING STONES ROCK TUMBLER 1977 COMPLETE
$40.0
ROLLING STONES ROCK TUMBLER 1977 COMPLETE picture


VERY SEXY ROLLING STONES BITCH RIDING TONGUE KEYRING/COLLECTABLE-BRIGHT COLORS
$4.86
VERY SEXY ROLLING STONES BITCH RIDING TONGUE KEYRING/COLLECTABLE-BRIGHT COLORS picture


Zippo Rolling Stones Picture 28428 Street Chrome Lighter
$17.86
Zippo Rolling Stones Picture 28428 Street Chrome Lighter picture


ORINGINAL ROLLING STONES 2006 TOUR CIGARETTE CASE
$0.99
ORINGINAL ROLLING STONES 2006 TOUR CIGARETTE CASE picture


The Rolling Stones Turntable Musical Christmas Ornament Plays GIMME SHELTER
$15.0
The Rolling Stones Turntable Musical Christmas Ornament Plays GIMME SHELTER picture