Your One-Stop Source For
Music Lyrics
Bass and Guitar Tabs
and More...
Music Lyrics Bass and Guitar Tabs

 

The Who Guitar Tabs Are Below

Learn To Read Tab
Chords Handbook
Corrections & Additions
Get Official Tab
Who tabs @ 911Tabs

Open G Tuning: D G D G B C

 

 

G(add4) x0000(0)

C x02010

D7add4 00403(0)

D7add4ii 00777x

 

Gvii (7)7978x

D (7)7777x

F x0756x

Cv x0555x

Eb x0536x

Bb x0333x

 

 

[Picking pattern approximate; chord names for reference only]

[4/4]

| ||G | |

|-------||---------------------------|----------------------------|

|-1p0---||3------3------3------3-----|3------3------3-------1p0---|

|----2p0||-----0------0------0------0|-----0------0------0-----2p0|

|-------||---------------------------|----------------------------|

|-------||--0-0----0-0----0-0----0-0-|--0-0----0-0----0-0---------|

|-------||---------------------------|----------------------------|

 

|G | |

Will you have some

|----------------------------|-------------------------------|

|-3------3------3------3-----|3------3------3-------1p0------|

|------0------0------0------0|-----0------0------0-------2p0-|

|----------------------------|-------------------------------|

|---0-0----0-0----0-0----0-0-|--0-0----0-0----0-0------------|

|----------------------------|-------------------------------|

 

|G |G |

Tea At the theatre with

|---------------------------|--------------------------------|

|3-----3------3------3------|3-----3------3-------1p0--------|

|----0------0------0------0-|----0------0------0-------2p0---|

|---------------------------|--------------------------------|

|-0-0----0-0----0-0----0-0--|-0-0----0-0----0-0--------------|

|---------------------------|--------------------------------|

 

|G C |

me?

|---------------------------0|

|3-----3------3-------1------|

|----0------0------0---------|

|----------------------------|

|-0-0----0-0----0-0-----0-0--|

|----------------------------|

 

 

|G |G C |

We did it all didn't

|-----------------------|-----0------0------0------0|

|0-------------1------1-|0------0------0------1-----|

|-----------------0-----|---0-----------------------|

|----------0h2----------|---------------------------|

|-----------------------|---------0-0----0-0----0-0-|

|-----------------------|---------------------------|

 

|G C |G |

We? Jumped every wall, in-

|-----0------0--------0-----0|-----0------0------0------0|

|0------0-------0-------1----|0------0------0------1-----|

|-------------------------0--|---0-----------------------|

|----------------------------|---------------------------|

|--0-0----0-0------0-0-----0-|---------0-0----0-0----0-0-|

|----------------------------|---------------------------|

 

|G |

stinctively Unravelled

|-------0------0------0--------0--|

|1/3------3------3--------6-------|

|---------------------------------|

|---------------------------------|

|----0-0----0-0----0-0------0-0---|

|---------------------------------|

 

|C |G |

Codes, ingeniously Wired

|------0-------0-----0-----0|----0------0-----0--------0-|

|-5------5-------5----8-----|8-----8------8-----8/10-----|

|---------------------------|----------------------------|

|---------------------------|----------------------------|

|---0-0----0-0----0-0---0-0-|-0-0----0-0---0-0------0-0--|

|---------------------------|----------------------------|

 

|G |C C C |

All the roads, so seamlessly We made

|-----0-----0-----0-----0-|-----0-------------0-0-|

|13----13----13----h15----|13~--------------x-1-1-|

|-------------------------|-----------------x-0-0-|

|-------------------------|-----------------x-2-2-|

|--0-0---0-0---0-0---0-0--|--0-0------------x-0-0-|

|-------------------------|-----------------------|

 

 

|G C|G G C |G G G C |G

It work, ooh yeah But one of us failed

 

F F |Cv F |Cv F x

That makes it so sad

 

C C |G C |G

A great dream derailed

 

G Gvii|D D /Gvii D |D D D\

One of us gone

 

F F |Cv F Cv Cv |

One of us mad

 

|Eb Bb/G C C C |G /C C |G

One of us, me All of us sad

 

|G C |

All of us sad Lean on my

------------|------0-------0--------0--0------0-|

1p0---------|0-------0------0---------1---------|

----2p0-----|-----------------------------------|

------------|-----------------------------------|

------------|---0-0----0-0-----0-0-------0-0----|

------------|-----------------------------------|

 

|G |

Shoulder now This story is

|------0-------0-------0--------------|

|0-------0-------0--------1p0---------|

|-------------------------------2p0---|

|-------------------------------------|

|--0-0-----0-0-----0-0----------------|

|-------------------------------------|

 

| | |

done, It's getting colder now A thousand

|------0-------0-------------------|----0-------0-------0-----------0|

|0-------0-------0------1-1-------1/3-----3-------3------------6-----|

|---------------------0------------|---------------------------------|

|----------------------------------|---------------------------------|

|---0-0----0-0-----0-0------0-0----|-0-0-----0-0----0-0----------0-0-|

|----------------------------------|---------------------------------|

 

| | |

Songs still smoulder now We play them as

|-----0-------0------------0|----0------0-----0----------0---|

|5-------5------5---5/8-----|8-----8------8-----8/10---------|

|---------------------------|--------------------------------|

|---------------------------|--------------------------------|

|--0-0-----0-0----0-0---0-0-|-0-0----0-0---0-0--------0-0----|

|---------------------------|--------------------------------|

 

| | C C |

One We're older now All of us

|-----0-----0-----0-----0-|----0----------------0--0-|

|10---/13----13----12-----|13----(13~)\--------h1-h1-|

|-------------------------|---------------------0--0-|

|-------------------------|--------------------h2-h2-|

|--0-0---0-0---0-0---0-0--|--0-0----------------0--0-|

|-------------------------|--------------------------|

 

 

|G C C|G G G C C |G C |

(All of us) sad All... of us free

 

 

|G G F F |Cv Cv Cv |

Before we walk from the stage

 

[2/4] [4/4]

|Eb Bb/G C | |G G /C C |G

Two of us Will you have some tea?

 

 

|G |

Will you have some tea

------------------|---------------------------|

---------1p0------|3-----3------3------3------|

--------------2p0-|----0------0------0------0-|

------------------|---------------------------|

------------------|-0-0----0-0----0-0----0-0--|

------------------|---------------------------|

 

| |

At the theatre with

|-----------------------------------|

|3------3------3---------1p0--------|

|-----0------0-------0--------2p0---|

|-----------------------------------|

|--0-0----0-0-----0-----------------|

|-----------------------------------|

 

 

| | |

Me?

|---------------------------|---------------------------|

|3-----3------3------3------|3-----3------3------1p0----|

|----0------0------0------0-|----0------0------0-----2p0|

|---------------------------|---------------------------|

|-0-0----0-0----0-0----0-0--|-0-0----0-0----0-0---------|

|---------------------------|---------------------------|

 

| | |

|---------------------------|---------------------------|

|3~----3------3------3------|3-----3------3------1p0----|

|----0------0------0------0-|----0------0------0-----2p0|

|---------------------------|---------------------------|

|-0-0----0-0----0-0----0-0--|-0-0----0-0----0-0---------|

|---------------------------|---------------------------|

 

| | ||

|-----0-------0-------0-----|0-------------||

|0-------0------0-----1-----|1-------------||

|---0-------0---------0-----|0-------------||

|---------------------2-----|2-------------||

|-------------------------0-|0-------------||

|---------------------------|--------------||

Click here to return to my Who Guitar Tabs page

The Who Guitar Tablature is Copyright its respective owners.

Sign Up For My Newsletter
Subscribe | Unsubscribe

Site Map | Disclaimer | Privacy Policy | Media Kit | Submissions/Corrections

Website © 2000-2014 mattsmusicpage.com. All rights reserved.

Legal & DMCA: Matt's Music Page has been providing lyrics and tabs in a legal way, paying royalties each year to a few organizations. Then, all lyrics and tabs were removed from the site. Now, there's a new owner to the site, which purchased it August 26, 2014, and he is in negotiation to obtain licensing from BMI at the moment. If you have a specific DMCA request -- please do not hesitate to contact me via the contact button on top. I will do my very best to keep this site fully legal.

Get our toolbar!