Your One-Stop Source For
Music Lyrics
Bass and Guitar Tabs
and More...
Music Lyrics Bass and Guitar Tabs

 

The Tabs Are Below

Learn To Read Tab
Chords Handbook
Corrections & Additions
Get Official Tab
Who tabs @ 911Tabs

Our Love Was, Is (stereo version; mono version solo included)

By The Who

>From The Who Sell Out, 1967

Written by Pete Townshend

 

==============

transcribed by

litgo@aol.com

==============

 

Note: Guitar 1 (right channel) in tablature; guitar 2 (left channel)

listed above staff unless otherwise noted. All leads and chords included

herein are approximate.

 

Note 2: Guitar 1 in mono version is different from stereo version; I've included the alternate solo.

 

Guitar 2 chords

Dx xx 12 11 10 10

Dadd9 xx 12 11 10 12

Giii xx 5433

D6 xx 12 11 12 10

D xx0232

D/C x30230

G6/B x20030

G6/Bb x10030

Eiv xx6454

Eiv/Eb x66454

Eiv/D xx0454

E xx2100

Eadd9 xx2102

E/Eb xx1100

E/D xx0100

E/C x32100

 

 

Our love was...

 

[guitar 1]

|-5---7--|5---7--|5---7--|5---7--|5---6--|5---6--|5---6--|0----2---|

|--7-----|-7-----|-7-----|-5-----|-5-----|-3-----|-4-----|-3-------|

|---7----|--6---5|--5---4|--4---3|--3---3|--3---3|--3---0|--0------|

|--------|-------|-------|-------|-------|-------|-------|---------|

|--------|-------|-------|-------|-------|-------|-------|---------|

|--------|-------|-------|-------|-------|-------|-------|---------|

|[guitar 2; palm mute] |

|5---7---|5---7--|5---7--|5---7--|5---6--|5---6--|5---6--|0----2---|

|7---7---|7---7--|7---7--|7---7--|7---7--|7---7--|7---7--|3----3---|

|--------|-------|-------|-------|-------|-------|-------|2----2---|

|--------|-------|-------|-------|-------|-------|-------|0----0---|

|--------|-------|-------|-------|-------|-------|-------|---------|

|--------|-------|-------|-------|-------|-------|-------|---------|

|[bass] |

|--------|-------|-------|-------|-------|-------|-------|---------|

|--------|-------|-------|-------|-------|-------|-------|---------|

|5---5---|4---4--|3---3--|2---2--|1---1--|-------|-------|-----5---|

|--------|-------|-------|-------|-------|5---5--|4---4--|3--------|

 

|Dx Dadd9 Dx Dad9 |Dx Dadd9|Dx Dadd9 |

Our love was famine, frustration we only

------------|5--7---|5--7-----|5--7----|5--7------|

------------|-7-----|-7-------|-7------|-7--------|

------------|--7--7-|--7--7---|--7--7--|--7--7----|

------------|-------|---------|--------|----------|

------------|-------|---------|--------|----------|

------------|-------|---------|--------|----------|

 

|Dx Dad9|Dx Dad9| Dx Dad9 | Dx Dx |

acted out an imitation of what real love

|5--9---|7--5---|5----8-----|7---5-------|

|-7--7--|-7-----|-7----7----|-7----7-----|

|--5--7-|--5-5--|--5----5---|--5-----5---|

|-------|-------|-----------|------------|

|-------|-------|-----------|------------|

|-------|-------|-----------|------------|

 

|Giii |Giii |Dx D6 Dx|Dx

Should have been, then suddenly...

|--3---------3-----7|7---7---|5----7----|5---

|---3---------------|--------|-7--------|7---

|4-----4------4/5/7-|7--7----|--7------7|7---

|-------------------|--------|----------|----

|-------------------|--------|----------|----

|-------------------|--------|----------|----

 

|D | |D/C | |

Our love was flying Our love was soaring Our love was

------------|------|---------------|---------|--------------|

------------|------|---------------|---------|--------------|

------------|------|---------------|---------|--------------|

------------|0-----|0------------0-|---------|--------------|

------------|------|---------------|3-------3|3------------3|

------------|------|---------------|---------|--------------|

 

|G6/B | |G6/Bb |G6/Bb |

shining like a summer morning

|--------|----------------|-----------|------|

|--------|----------------|-----------|------|

|--------|----------------|-----------|------|

|--------|----------------|-----------|------|

|2------2|2------------2--|1-------1/1|1-----|

|--------|----------------|-----------|------|

 

|D D (D/C)|(G/B) A |D | |

|---------|--------|---------|------------|

|---------|--------|---------|3-----------|

|---------|--------|--2------|2-----------|

|0-0------|--------|0-0------|0-----------|

|----3-3--|2-2---0-|-----0-2-|------------|

|---------|----3---|---------|------------|

 

Flying, soaring shining morning

|5--7--|5--7--|5--7--|5--5/7-|7--5/7-|7--5/7-|5--5/7-|5--5/7-|

|-7----|-7----|-7----|-7-----|-5-----|-5-----|-5-----|-5-----|

|--7-7-|--7--6|--6--6|--6----|--5---5|--5---4|--4---4|--4---3|

|------|------|------|-------|-------|-------|-------|-------|

|------|------|------|-------|-------|-------|-------|-------|

|------|------|------|-------|-------|-------|-------|-------|

|[gtr 2] |

|5--7--|5--7--|5--7--|5---7--|5---7--|5---7--|5---7--|5---7--|

|7--7--|7--7--|7--7--|7---7--|7---7--|7---7--|7---7--|7---7--|

|------|------|------|-------|-------|-------|-------|-------|

|------|------|------|-------|-------|-------|-------|-------|

|------|------|------|-------|-------|-------|-------|-------|

|------|------|------|-------|-------|-------|-------|-------|

 

Never leaving, lying, dy--ing

|5--5/6-|5--5/6-|5--5/6--|5--5/6--|5--6---|5--6---|0----2--|--|

|-5-----|-5-----|-5------|-5------|-4-----|-4-----|-3------|--|

|--3---3|--3---3|--3----3|--3----3|--3--3-|--3---0|--0/2---|--|

|-------|-------|--------|--------|-------|-------|--------|--|

|-------|-------|--------|--------|-------|-------|--------|--|

|-------|-------|--------|--------|-------|-------|--------|--|

|[gtr2] |

|5---6--|5---6--|5----6--|5---6---|5---6--|6---6--|0----2--|--|

|7---7--|7---7--|7----7--|7---7---|7---7--|7---7--|3----3--|--|

|-------|-------|--------|--------|-------|-------|2----2--|--|

|-------|-------|--------|--------|-------|-------|0----0--|--|

|-------|-------|--------|--------|-------|-------|--------|--|

|-------|-------|--------|--------|-------|-------|--------|--|

 

x2

||:D G|A5 G:||D

||---------|---------||----

||---------|---------||----

||.--------|--------.||----

||.0-0-0---|--------.||0---

||---------|0-0-0----||----

||------2-3|-----2-3-||----

 

Love love love long, Love love love long

Love love love long, Love love love long

 

||:D G | A7 G:|| x2

Love love love long, Love love love long

||---------------------|-------------------||

||---------------------|-------------------||

||.--------------------|------------------.||

||.0----0----0---------|------------------.||

||---------------------|0----0----0--------||

||----------------2-3--|---------------2-3-||

 

||:E A |B7 A :||x2

Love love love long, Love love love long

||---------------------|--------------------||

||---------------------|--------------------||

||.--------------------|-------------------.||

||.2----2----2---------|-------------------.||

||------------------0--|2----2-----2-----0*-||[*first time only]

||----------------4----|---------------4*---||

 

|Eiv |Eiv |Eiv/Eb |Eiv/Eb |

Our love was flying Our love was soaring Our love was

------------|7--9-----|7---9--------|7--7/9---|7------9------|

------------|-9-------|-9-----------|-9-------|-9------------|

------------|--9---9--|--9-------8--|--8---8--|--8--------7--|

------------|---------|-------------|---------|--------------|

------------|---------|-------------|---------|--------------|

------------|---------|-------------|---------|--------------|

 

|Eiv/D |Eiv/D |C |Am |

shining like a summer morning

|7---9---|7---9----------|7--8---|7------|

|-9------|-9-------------|-7-----|-------|

|--7---7-|--7------------|-------|-------|

|--------|---------------|-------|-------|

|--------|---------------|-------|-------|

|--------|---------------|-------|-------|

 

[gtr 2; gtr 1 tacit]

|| E5 B5 A |B5 A ||

||-------------|---------||

||-------------|---------||

||.4-4-4-------|--------.||

||.2-2-2-------|4-4-4---.||

||-------2---0-|2-2-2--0-||

||----------4--|-----4---||

 

[STEREO VERSION SOLO: gtr 2 continue pattern; gtr 1 solo]

|E5 A |B5 A |E5 A |B5 A |

|10^-------|------------|----------|------------------------|

|----10^10^|10^--7--5/7/|5-------5-|4/5/4-2/4/2-0/2/0-0/2/0-|

|----------|------------|----------|------------------------|

|----------|------------|----------|------------------------|

|----------|------------|----------|------------------------|

|----------|------------|----------|------------------------|

 

|E5 A |B5 A |E5 A |B5 |B5 |

(Our love was...)

|--------------|--------------|-------------|-------|---------------|

|0-0/2-2/0-0/2-|2/0-0/2-2/0-0/|2/2^\2/0-0/2/|0------|---------------|

|--------------|--------------|-------------|-------|---------------|

|--------------|--------------|-------------|-------|---------------|

|--------------|--------------|-------------|-------|---------------|

|--------------|--------------|-------------|-------|---------------|

 

[MONO VERSION SOLO: gtr 2 continue pattern; gtr 1 solo]

|E5 A |B5 A |E5 A |B5 A |

-----|----------|-------------|----------|---------------|

-7-7-|7/9-----9-|7----7-9-7-5-|7/9-----9-|7----7-7-----5-|

-8-8-|8/9-----9-|8----8-9-8-6-|8/9-----9-|8----8-8/9/8-6-|

-----|----------|-------------|----------|---------------|

-----|----------|-------------|----------|---------------|

-----|----------|-------------|----------|---------------|

 

|E5 A |B5 A |E5 A |B5 |B5 |

(Our love was...)

|--------|-------------|----------|----------------|--------------|

|7/9---9-|7--9-7-------|7/9-------|7-7-7-7-7-7-7-7-|7-------------|

|8/9---9-|8--9-8-9-8---|8/9-------|8-8-8-8-8-8-8-8-|8-------------|

|--------|-----------9-|------9-9-|9-9-9-9-9-9-9-9-|9-------------|

|--------|-------------|----------|----------------|--------------|

|--------|-------------|----------|----------------|--------------|

 

(B5) |E Eadd9 |E Eadd9|E Eadd9|E Eadd9|

Our love was famine, frustration We

------------|7--9-----|12--7---|7--9----|7--9---|

------------|-9-------|--9-----|-9------|-9-----|

------------|--9--9---|------9-|--9--9--|--9--9-|

------------|---------|--------|--------|-------|

------------|---------|--------|--------|-------|

------------|---------|--------|--------|-------|

 

|E Eadd9 |E Eadd9|E Eadd9 |E Eadd9 |

only acted out an imitation of what real love

|7---7-----|-----7--|10--9-9---|-----9--------|

|-9----9---|---9----|---9------|---9------9---|

|--9-------|7------7|--7-------|-7------------|

|----------|--------|----------|9-------------|

|----------|--------|----------|--------------|

|----------|--------|----------|--------------|

 

A |A |E |E

should have been And then suddenly...

|--------------|-------------|--0------|--

|--------------|--5----------|-2--0----|--

|6-------------|6---6--------|---1-----|--

|--------------|-------------|2--------|2-

|-------9------|-9-9---------|---------|--

|--------------|-------------|---------|--

 

|E |E |E/Eb |E/Eb |

Our love was flying Our love was soaring Our love was

------------|---------|---------------|----------|--------------|

------------|---------|---------------|----------|--------------|

------------|---------|---------------|----------|--------------|

------------|---------|---------------|----------|--------------|

------------|7--------|7--------------|6---------|6-------------|

------------|---------|---------------|----------|--------------|

 

|E/D |E/D |C |Am |

shining like a summer morning

|--------|----------------|--------|------|

|--------|----------------|--------|------|

|--------|----------------|--------|------|

|--------|----------------|--------|------|

|5-------|5---------------|3-------|------|

|--------|----------------|--------|4-----|

 

|E |D |E | | |

|0---|2---|4---|-------------|-------------|

|0---|3---|5---|-------------|-------------|

|1---|2---|4---|-------------|-------------|

|2---|0---|6---|--2----------|--2----------|

|----|----|----|2---2---2----|2---2---2----|

|----|----|----|------0---0--|------0---0--|

[palm mute]

 

=============

litgo@aol.com

 

 

Return to my to my Who tabs page

The Tablature is Copyright its respective owners.

Sign Up For My Newsletter
Subscribe | Unsubscribe

Site Map | Disclaimer | Privacy Policy | Media Kit | Submissions/Corrections

Website © 2000-2014 mattsmusicpage.com. All rights reserved.

Legal & DMCA: Matt's Music Page has been providing lyrics and tabs in a legal way, paying royalties each year to a few organizations. Then, all lyrics and tabs were removed from the site. Now, there's a new owner to the site, which purchased it August 26, 2014, and he is in negotiation to obtain licensing from BMI at the moment. If you have a specific DMCA request -- please do not hesitate to contact me via the contact button on top. I will do my very best to keep this site fully legal.

Get our toolbar!