Your One-Stop Source For
Music Lyrics
Bass and Guitar Tabs
and More...
Music Lyrics Bass and Guitar Tabs

 

The Tabs Are Below

Learn To Read Tab
Chords Handbook
Corrections & Additions
Get Official Tab
Who tabs @ 911Tabs

Fortune Teller

As recorded by The Who, 1968

>Appears on 30 Years of Maximum R&B box set

Written by Naomi Neville ©EMI Unart Catalog, Inc. (Allen Toussaint)

 

==============

transcribed by

litgo@aol.com

==============

 

||:D C |A D/A A :||

||---------|-------------||

||---3---1-|----3-3--2---||

||.-2-2-0-0|2---2-2--2--.||

||.0-------|2---4-4--2--.||

||-----3---|0---0-0--0---||

||---------|-------------||

 

|D C |A D/A A |

Went to the fortune teller

|D C |A D/A A |

And had my fortune read

|D C |A D/A

I didn't know what to tell her

|---------------

|--------/5-5---

|2--------------

|2-------/5-5---

|0--------------

|---------------

 

A |D C |A D/A A |

I had a dizzy feeling in my head

-------|-------------------|---------------|

--5---/|7------------\5----|2-----/5----2--|

-------|-------------------|---------------|

--5---/|7------------\5----|2-----/4----2--|

--0----|-------------------|0--------------|

-------|-------------------|---------------|

 

|D C |A D/A

She said she'd take a look at my palm

|----------------------------|---------------|

|----------------------------|---------------|

|----------------------------|---------------|

|----------------------------|---------------|

|/5---------------/3-------3^|0----0-3^-0-3^-|

|----------------------------|---------------|

 

A |D C |A D/A

She said, "Son, do you feel kind of warm?"

|------------------------|---------------|

|------------------------|-----------3-2-|

|------------------------|2--------2-----|

|------------------------|2------2-------|

|/5---------/3-----------|0--------------|

|------------------------|---------------|

 

A |D C |A

Then she looked into her crystal ball

D/A D/A|D7 | |

And said, "You're in love."

 

|D C |A D/A A |D C |A D/A A |

Ahh Ahh Ahh Ahh Ahh Ahh

|--------|---------|----------------|--------------------|

|--------|---------|----------------|--------------------|

|--------|---------|----------------|--------------------|

|--------|---------|----------------|--------------------|

|/5---3--|--------3|-5-5--3-3h5p3---|-------3^---3^---3^-|

|--------|/5-3--5--|5-5----5-----5/3|/5---5----5----5----|

 

|D C |A D C |A

I said, "it could not be so, Not with all the girls I know."

-|----------------------|----------|----------------------|---------

-|----------------------|----------|----------------------|---------

-|----------------------|----------|----------------------|---------

-|----------------------|----------|----------------------|---------

-|/5-------------/3-----|----------|/5-------------/3-----|---------

-|----------------------|/5---3--5-|----------------------|/5---3--5

 

|D C |A |D C |A

She said when the next one arrives, you'll be looking into her eyes

---|------------------------|----------------|----------------|-------|

---|------------------------|----------------|----------------|-------|

---|------------------------|----------------|----------------|-------|

---|------------------------|----------------|----------------|-------|

3--|/5-----------/3---------|--------------3-|/5----5---3-----|-------|

---|------------------------|/5---3---5------|----------------|/5-3-5-|

 

|D C |A G Fsus4| | Fsus4|G | |

 

|D C |A |D C |A | |A |

 

[double time]

||E D |B A B ||:E D |B A B :||

||--------|--------||---0---2-|---------||

||--------|--------||---0-3-3-|---------||

||9-9-5-5-|4-4-2-4-||.1-1-2-2-|4-4-2-4-.||

||9-9-5-5-|4-4-2-4-||.2-2-0---|4-4-2-4-.||

||7-7-7-7-|2-2-0-2-||-2-------|2-2-0-2--||

||--------|--------||---------|---------||

 

|E E D D|B A

I left there in a hurry

B |E E D D |B A B|

Lookin' forward to my big surprise

|E E D D |B B A

The next day I discovered

B |E E D D |B A B|

That the fortune teller told me lies

 

I hurried back down to that woman

As mad as I could be

I told her I didn't see nobody

And that she made a fool out of me

 

|E D |B B A B

Then something struck me

|E D |B A B|

As if it came from up above

|E D |B

While lookin' at the fortune teller

A B |D5 |

I fell in love

 

|E D |B A G5| | G5|A | |E

 

=============

litgo@aol.com

 

 

Return to my to my Who tabs page

The Tablature is Copyright its respective owners.

Sign Up For My Newsletter
Subscribe | Unsubscribe

Site Map | Disclaimer | Privacy Policy | Media Kit | Submissions/Corrections

Website © 2000-2014 mattsmusicpage.com. All rights reserved.

Legal & DMCA: Matt's Music Page has been providing lyrics and tabs in a legal way, paying royalties each year to a few organizations. Then, all lyrics and tabs were removed from the site. Now, there's a new owner to the site, which purchased it August 26, 2014, and he is in negotiation to obtain licensing from BMI at the moment. If you have a specific DMCA request -- please do not hesitate to contact me via the contact button on top. I will do my very best to keep this site fully legal.

Get our toolbar!