Your One-Stop Source For
Music Lyrics
Bass and Guitar Tabs
and More...
Music Lyrics Bass and Guitar Tabs

 

The Tabs Are Below

Learn To Read Tab
Chords Handbook
Corrections & Additions
Get Official Tab
Who tabs @ 911Tabs

Song: Summertime Blues (bass)

Artist: The Who

Written by: Eddie Cochran/Jerry Capehart

>From: Live at Leeds

 

 

A D E A A D E A

|----------------|----------------|--9\7----------|----------------|

|----------------|--5-5-6-7------0|---------------|----------------|

|--0-5-----555500|7---------0-5h7-|0-------0555555|7-5-------------|

|5---------------|----------------|-----0---------|----7^-5--555500|

 

A D E A A D E A

|----------------|----------------|--9\7----------|----------------|

|----------------|--5-5-6-7------5|---------------|----------------|

|--0-5-----555500|7---------0-5h7-|0----5---555555|7-5-------------|

|5^--------------|----------------|---------------|----7^-5-5-5-00|

 

A

|------------------|-----------------------|

|------------------|-----------------------|

|--00-0-00-00-0-00-|--000---000---000--000-|

|3^-------3^-------|3^----3^----3^---3^----|

 

A Well, I'm...

|--------------------|------------------|

|--------------------|------------------|

|--00-0-00---00-0-00-|--00-0-00---0-0-0-|

|3^--------3^--------|3^--------3^------|

 

A D E A

|----------------|---------------|----------------|----------------|

|----------------|---------------|----------------|----------------|

|--0-0-0---0-0-0-|--0-0-0--0-0---|--0-5-----555555|7-7p5-----------|

|3^------3^------|3^-----3^----0-|5^--------------|-----7^-5--5-5-0|

 

A A D E A

|----------------|---------------|----------------|----------------|

|----------------|---------------|----------------|----------------|

|--0-0-0---0-0-0-|--0-0-0--0-0---|--0-5-----555555|7---5---------00|

|3^------3^------|3^-----3^----0-|5^--------------|-----7^-5--5-5--|

 

D D6 D7 D6 D D6 D7 A

|-----------------|-----------------|----------------|----------------|

|-----------------|-----------------|----------------|----------------|

|3-555-5-55355-5-5|3h5-5-5-3h5-5-5-0|----------------|----------------|

|-----------------|-----------------|5---------------|----------------|

 

D D6 D7 D6 D D6 D7 A

|-----------------|7^\-----5--------|----------------|----------------|

|-----------------|-----5h7---------|----------------|----------------|

|3h5-5-5-3h5-5-5-5|----------0-7-5-3|----------------|----------------|

|-----------------|-----------------|5---------------|----------------|

 

A D E A A D E A

|----------------|-----------------|--9\7----------|----------------|

|----------------|--5-5-6-7--------|---------------|----------------|

|--0-5-----555500|7---------0-5h7-5|0----5---555555|7-5-------------|

|5---------------|-----------------|---------------|----7^-5-5-5-00|

 

A

|--------------------|

|--------------------|

|--00-0-00---00-0-00-|

|3^--------3^--------|

 

|21/20/19/18/17/16/15/14/13/12/11/10/9/8/7/6/5/4/3/2/1|

|-----------------------------------------------------|

|-----------------------------------------------------|

|-----------------------------------------------------|

 

A

Well, my...

|-------------------|-------------------|

|-------------------|-------------------|

|--00-0-00--00--0-00|--00-0-0---0--0--0-|

|3^------------3^---|3^-------3^--------|

 

A A D E A

|----------------|---------------|----------------|----------------|

|----------------|---------------|----------------|----------------|

|--0-0-0---0-0-0-|--0-0-0--0-0---|--0-5-----555555|7-7p5-----------|

|3^------3^------|3^-----3^----0-|5^--------------|-----7^-5----5-0|

 

A A D E A

|----------------|---------------|----------------|----------------|

|----------------|---------------|----------------|----------------|

|--0-0-0---0-0-0-|--0-0-0--0-0---|--0-5-----555555|7575----------00|

|3^------3^------|3^-----3^----0-|5^--------------|-----7^-5--5-5--|

 

D D6 D7 D6 D D6 D7 A

|------------------|-------------------|------------|-----------|

|------------------|-------------------|------------|-----------|

|3-5-5-5-55355-5-55|3h5-5-5-5-3h5-5-5-0|------------|-----------|

|------------------|-------------------|5-----------|-----------|

 

D D6 D7 D6 D D6 D7 D6 A

|-----------------|7^\-----5------------|------------|------------|

|-----------------|-----5h7--7-5--------|------------|------------|

|3h5-5-5-3h5-555-5|--------------7-0-5-3|------------|------------|

|-----------------|---------------------|5-----------|------------|

 

A D E A A D E A

|----------------|-----------------|--9\7----------|----------------|

|----------------|--5-5-6-7--------|---------------|----------------|

|--0-5-----555555|7---------0-5h7-5|0----5---555555|7-5-------------|

|5---------------|-----------------|---------------|----7^-5--555500|

 

[solo]

A D E A A D E A

|------------7-----|---9----------|---------------|----------------|

|---777------------|-----0-777----|55667-77-------|----------------|

|--------555----55/|777-------5567|--------5555-55|776655----445567|

|3/5---5-----------|--------------|---------------|------7755------|

 

A D E A A D E A

|-------------7---|---9------------|------------7----|---9-----------|

|5/7-7~-----------|-------77-------|--7-75-----------|-----7--7-5-5--|

|-------00555-55/|777-77---0--5670|0-0----765-5--55-|757--0-----7---|

|-----------------|----------------|-----------------|---------------|

 

A D E A A D E A

|-----------------|----------------|------------------|---------------|

|7-777--77--------|----------------|7777-6655---------|---------------|

|----0----555-5-55|77-65-------5677|----------055-5-55|77-6655--------|

|-----------------|-----7^-5-55----|------------------|-------7^--7--6|

 

A D E A A D E A

|------7--|-----9----------|-----------7----|----9------------|

|--7------|-------/7------5|77777-77--------|------7----------|

|----5--56|7p5-7-----0-5h7-|--------555--5-6|777-----070-5h7-0|

|5--------|----------------|----------------|-----------------|

 

A D E A A D E A

|------------------|--------------|--------------|--------------|

|5h7-7766----------|--------------|--------------|--------------|

|---------7-6555500|7-7-----------|---0-5--555500|7-5-----------|

|------------------|----3-5--55550|5^------------|---7^-5--55550|

 

B E F# B B E F# B

|---------------|--------------|----------------|----------------|

|---------------|-778-9~-----7-|9797------------|----------------|

|--0-7--7777700-|9------007h9--|----9^-7--777777|9-7-------------|

|7--------------|--------------|----------------|----9^-7---7-00-|

 

B

Gonna...

|--------------------|------------------|

|--------------------|------------------|

|--------------------|------------------|

|5-77-7-77-5-77-7-77-|5-77-7-7-5--7-7-7-|

 

B

|--------------------|--------------------|

|--------------------|--------------------|

|--------------------|--------------------|

|5h7-7-7-7-5h7-7-7-7-|5h7-7-7-7-5h7-7-7-0-|

 

B E F# B

|----------------|-----------------|

|----------------|-----------------|

|----0-7---777777|9-7--------------|

|7^--------------|----9^-7---7-7-7-|

 

B

|--------------------|--------------------|

|--------------------|--------------------|

|--------------------|--------------------|

|5h7-7-7-7-5h7-7-7-7-|5h7-7-7-7-5h7-7-7-0-|

 

B E F# B

|----------------|-----------------|

|----------------|-----------------|

|----0-7---777777|9-7-----------0-0|

|7^--------------|----9^-7---7-7---|

 

(D) B

|----------------|--------------------|------|-----------|

|----------------|--------------------|------|-----------|

|577-7-77577-7-7-|5h7-7-7-7-5h7-7-7---|------|-----------|

|----------------|------------------7-|7-----|-----------|

 

E B

|-----------------|11\9-----7-----------|------|-----------|

|-----------------|-----7h9----9-7------|------|-----------|

|5h7-7-7-5h7-7-7--|---------------9-7---|------|-----------|

|-----------------|------------------9-8|7-----|-----------|

 

B E F# B B E F# B

|--------------|-----------------|-11\9-----------|------------------|

|--------------|--7-7-8-9~------7|----------------|------------7-9-7-|

|---0-7--777777|9----------0-7h9-|0---0--7--777777|9-7------7h9-----9|

|7^------------|-----------------|----------------|----9^-7----------|

 

B E F# B B E F# B

|----------------|-----------------|--------------------|----------|

|----------------|--7-7-8-9-------7|9-7-9-7-------------|----------|

|----0-7---777777|9---------0-7h9--|--------9^-7--777777|9-7-------|

|7^--------------|-----------------|--------------------|----9^-7--|

 

 

Return to my to my Who bass tabs page

The Tablature is Copyright its respective owners.

Sign Up For My Newsletter
Subscribe | Unsubscribe

Site Map | Disclaimer | Privacy Policy | Media Kit | Submissions/Corrections

Website © 2000-2014 mattsmusicpage.com. All rights reserved.

Legal & DMCA: Matt's Music Page has been providing lyrics and tabs in a legal way, paying royalties each year to a few organizations. Then, all lyrics and tabs were removed from the site. Now, there's a new owner to the site, which purchased it August 26, 2014, and he is in negotiation to obtain licensing from BMI at the moment. If you have a specific DMCA request -- please do not hesitate to contact me via the contact button on top. I will do my very best to keep this site fully legal.

Get our toolbar!

 

® Elvis Presley Figure with Bars & Vinyl Record Stage
$23.99
® Elvis Presley Figure with Bars & Vinyl Record Stage picture


THE LONGINES SYMPHONETTE "SENTIMENTAL JOURNEY" VINTAGE VINYL ALBUM RECORD BOWL
$19.99
 THE LONGINES SYMPHONETTE


African Ghana Medley Vinyl Phono Record Beads (8mm) Ghana
$15.0
African Ghana Medley Vinyl Phono Record Beads (8mm)  Ghana picture


African Yellow Vinyl Phono Record Beads (6mm) Ghana
$12.0
African Yellow Vinyl Phono Record Beads (6mm)  Ghana picture


African Vintage Vinyl Phono Record Beads (7mm - Set of 4) Ghana
$69.0
African Vintage Vinyl Phono Record Beads (7mm - Set of 4)  Ghana picture