Your One-Stop Source For
Music Lyrics
Bass and Guitar Tabs
and More...
Music Lyrics Bass and Guitar Tabs

 

The Tabs Are Below

Learn To Read Tab
Chords Handbook
Corrections & Additions
Get Official Tab
Who tabs @ 911Tabs

 

 

The Real Me

The Who

bass transcription: Scott Evans

 

 

 

17-------------|------17/20--|---------15--15--17--|---------------8------10----

----15h17------|--17---------|--15/17--------------|--------8---------10--------

-----------15--|-------------|---------------------|--8h10-----10---------------

---------------|-------------|---------------------|----------------------------

 

 

verse

----12--10--15--12--17--15------|----------------------------------|------------

10--------------------------17--|----------------------------------|------------

--------------------------------|---------------------1--3h6--3/8--|------------

--------------------------------|---0--1--1--2--2--3---------------|--0--1------

 

 

 

-----------------------|-------------------8------10--8--|--10--12--10----------

-----------------------|-----------10--10-----10---------|--------------12------

------------1--3/6/10--|---------------------------------|----------------------

1--2--2--3-------------|--8--8--8------------------------|----------------------

 

 

chorus

--------------|---------------------------|-----------------|-----------5--|----

10--8---------|---------------------------|-----------------|--------------|----

-------10--8--|---3--3--3--3-----6--5--3--|--3-----6--5--3--|--3--3--3-----|----

--------------|---------------3-----------|-----3-----------|--------------|----

 

 

verse feel

---------------------|-----------------5--5--5--5--|---------|------------------

---------------------|-----------------------------|---------|------------------

3--3-----3--6--5--3--|-----3--6--5--3--------------|---3/15--|------------------

------3--------------|--3--------------------------|---------|--0--1--1--2------

 

 

verse

---------|--15--17---------15-----|---------------------------|-----------------

---------|----------15h17---------|---------------------------|--10--10--10-----

---1/3/6/|---------------------15/|------------------------3--|-----------------

2--------|------------------------|---0--1--1--2--2--3--3-----|-----------------

 

 

chorus

----|--------------------------------|-----------------------|------------------

10--|--------------------------1-----|-----------------------|------------------

----|-----------------1-----3-----3--|-----------------------|---3--3--3--3-----

----|--0--1--2--3--3-----3-----------|--0--1--1--2--2--3--3--|------------------

 

 

 

------------|-----5--5--5/17--17--17--17--17--|------17------17---------15------

------------|---------------------------------|----------17------15h17----------

---6--5--3--|--3------------------------------|--15-----------------------------

3-----------|---------------------------------|---------------------------------

 

 

cool part

----|--17----------15----------|------------------------------------------------

17--|------15--17------17--15--|------------------------------------------------

----|--------------------------|---3--3--3-----------------------------1--1-----

----|--------------------------|------------0--0--1--1--1--2--2--3--3-----------

 

 

 

-------------------------------|-------------------------------8------10--8-----

1-----3-----5--3--8--3--10--8--|-----------10--10--10--10--10-----10------------

---3-----3---------------------|------------------------------------------------

-------------------------------|--8--8--8---------------------------------------

 

 

 

/12--10-------------------|--15--17-------------|--15--17--20--20\17--|---------

---------10--12--8--8/10--|----------15h17------|---------------------|--15-----

--------------------------|-----------------15--|---------------------|---------

--------------------------|---------------------|---------------------|---------

 

 

 

-----15--17--15------------------------------|--------------------------|--3----

/17--------------17--16--15------------------|--------------------------|-------

-----------------------------18--15--13--15--|--------------0--1--2--3--|-------

---------------------------------------------|--0--1--1--2--------------|-------

 

 

 

5--3--------------------|-----------------------------------------------------||

------5--4--3-----------|-----------------------------------------------------||

---------------6-----3--|-----------------------------------------------------||

------------------6-----|--0--0--1--1--2--2--3--3--4--4--1--1--2--2--3--3-----||

 

 

 

 

Return to my to my Who bass tabs page

The Tablature is Copyright its respective owners.

Sign Up For My Newsletter
Subscribe | Unsubscribe

Site Map | Disclaimer | Privacy Policy | Media Kit | Submissions/Corrections

Website © 2000-2014 mattsmusicpage.com. All rights reserved.

Legal & DMCA: Matt's Music Page has been providing lyrics and tabs in a legal way, paying royalties each year to a few organizations. Then, all lyrics and tabs were removed from the site. Now, there's a new owner to the site, which purchased it August 26, 2014, and he is in negotiation to obtain licensing from BMI at the moment. If you have a specific DMCA request -- please do not hesitate to contact me via the contact button on top. I will do my very best to keep this site fully legal.

Get our toolbar!

 

VINTAGE SORRENTO MUSIC JEWELRY BOX
$45.0
VINTAGE SORRENTO MUSIC JEWELRY BOX picture


VINTAGE LACQUERED MUSIC BOX JAPAN
$25.99
VINTAGE LACQUERED MUSIC BOX JAPAN picture


Vintage Kehlsteinhaus Bavaria Germany Colorscope Cow Bell View Master Music Box
$8.99
Vintage Kehlsteinhaus Bavaria Germany Colorscope Cow Bell View Master Music Box picture


VINTAGE SCHMIDT Signed Collectible Musical Turning Clown
$9.99
VINTAGE  SCHMIDT Signed Collectible Musical Turning Clown picture


Vintage - Linen - Postcard - Stage - Radio City Music Hall - New York City
$3.75
Vintage - Linen - Postcard - Stage - Radio City Music Hall - New York City   picture