Your One-Stop Source For
Music Lyrics
Bass and Guitar Tabs
and More...
Music Lyrics Bass and Guitar Tabs

 

The Tabs Are Below

Learn To Read Tab
Chords Handbook
Corrections & Additions
Get Official Tab
Weezer tabs @ 911Tabs

 

Weezer

Undone- the Sweater Song

1/2 Step Down

 

 

5)Undone- The Sweater Song

 

-----------------------------------------------------------------------

----------0---------0----------0----------0----------------------------

--------3---------3----------5----------3------------------------------

------2---------2----------4----------2--------------------------------

------------(3)--------(5)--------(3)---------------------------------

--(3)------------------------------------------------------------------

 

Spoken:

 

Hey Bob! How you doin', man?

All right.

It's been a while man. Life's so rad. This band's my favorite, man.

Don't you love 'em?

Yeah.

Aw man, you want a beer?

All right.

Aw man, Hell, this is the best, man. I'm so glad we're all back

together and stuff. This is great, man.

Yeah.

Hey, do you know about the party after the show?

Yeah.

Aw, man, it's going to be the best. I'm so stoked. Take it easy, bro.

 

 

G C

I'm me

C D

Me be

D C

God damn

C G

I am

G C

I can

C D

Sing and

D C

hear me

C

know me

 

G C D C

If you want to destroy my sweater

G C D C

Hold this thread as I walk away

G C D C

Watch me unravel I'll soon be naked

G C D C

Lying on the floor, I've come undone

 

G C

Oh no

C D

It go

D C

It gone

C G

Bye bye

G C

Who I

C D

I think

C G

I sink

G

and I die

 

Solo

-----------------------------------------------------------------------

--------------------------1-3-3B-3B-1-------------------3-3-1----------

-3-3-3-0-3-0-0--3-3-3-0-3-------------3-3-0---0-3-0-3-0-------3-3-0----

--------------------------------------------3-----------------------3--

-----------------------------------------------------------------------

-----------------------------------------------------------------------

 

---------3p1-----------------------------------------------------------

-3B-1-------3p1-----------------------------6/8/10-10-10/11-11-11/13-13

------3--------h3-3-3-3-3/5-5-5/7-7-7/8-8-8----------------------------

-----------------------------------------------------------------------

-----------------------------------------------------------------------

-----------------------------------------------------------------------

 

-----------------10---10---10---10--------------16B--18B-18-17---------

13-13-11-10-8-6-----8----8----8----8--(6H8P6H8)----------------15------

-----------------------------------------------------------------------

-----------------------------------------------------------------------

-----------------------------------------------------------------------

-----------------------------------------------------------------------

 

Chorus w/background

 

I don't want to destroy your tank top

Let's be friends and just walk away

Hate to see you lying there in your Superman skivvies

Lying on the floor, I've come undone

 

 

Tabbed by TNitz303@aol.com

 

 

Return to my to my Weezer tabs page

The Tablature is Copyright its respective owners.

Sign Up For My Newsletter
Subscribe | Unsubscribe

Site Map | Disclaimer | Privacy Policy | Media Kit | Submissions/Corrections

Website © 2000-2014 mattsmusicpage.com. All rights reserved.

Legal & DMCA: Matt's Music Page has been providing lyrics and tabs in a legal way, paying royalties each year to a few organizations. Then, all lyrics and tabs were removed from the site. Now, there's a new owner to the site, which purchased it August 26, 2014, and he is in negotiation to obtain licensing from BMI at the moment. If you have a specific DMCA request -- please do not hesitate to contact me via the contact button on top. I will do my very best to keep this site fully legal.

Get our toolbar!