Your One-Stop Source For
Music Lyrics
Bass and Guitar Tabs
and More...
Music Lyrics Bass and Guitar Tabs

 

The Tabs Are Below

Learn To Read Tab
Chords Handbook
Corrections & Additions
Get Official Tab
Weezer tabs @ 911Tabs

Weezer - Getchoo

 

[This was created with TabIt for Windows version 1.53]

 

Eb :--------------------|--------------------|--------------------|

Bb :--------------------|--------------------|--------------------|

Gb :2-2-2-2---2---2-2-2-|*-------------------|2-2-2-2---2---2-2-2-|

Db :2-2-2-2---2---2-2-2-|2-2-2-2---2---2-2-2-|2-2-2-2---2---2-2-2-|

Ab :0-0-0-0---0---0-0-0-|2-2-2-2---2---2-2-2-|0-0-0-0---0---0-0-0-|

Eb :--------------------|0-0-0-0---0---0-0-0-|*-------------------|

 

Eb :--------------------|--------------------|--------------------|

Bb :--------------------|--------------------|--------------------|

Gb :--------------------|--------------------|--------------------|

Db :--------------------|--------------------|--------------------|

Ab :--------------------|--------------------|--------------------|

Eb :--------------------|--------------------|--------------------|

 

Gb :--------------------|--------------------|--------------------|

Db :--------------------|2---2---1-2-1-2---2-|--------------------|

Ab :0---0---0-0---0---2-|--------------------|0---0---0-0---0---2-|

Eb :------------0-------|--------------------|------------0-------|

 

=============================================================================

 

Eb :--------------------|--------------------|--------------------|

Bb :--------------------|--------------------|--------------------|

Gb :*-------------------|2-2-2-2---2---2-2-2-|*-------------------|

Db :2-2-2-2---2---2-2-2-|2-2-2-2---2---2-2-2-|2-2-2-2---2---2-2-2-|

Ab :2-2-2-2---2---2-2-2-|0-0-0-0---0---0-0-0-|2-2-2-2---2---2-2-2-|

Eb :0-0-0-0---0---0-0-0-|*-------------------|0-0-0-0---0---0-0-0-|

 

Eb :--------------------|--------------------|--------------------|

Bb :--------------------|--------------------|--------------------|

Gb :--------------------|--------------------|--------------------|

Db :--------------------|--------------------|--------------------|

Ab :--------------------|--------------------|--------------------|

Eb :--------------------|--------------------|--------------------|

 

Gb :--------------------|--------------------|--------------------|

Db :2---2---1-2-1-2---2-|--------------------|2---2---1-2-1-2---2-|

Ab :--------------------|0---0---0-0---0---2-|--------------------|

Eb :--------------------|------------0-------|--------------------|

 

=============================================================================

 

Eb :--------------------|--------------------|--------------------|

Bb :--------------------|--------------------|--------------------|

Gb :2-2-2-2---2---2-2-2-|*-------------------|2-2-2-2---2---2-2-2-|

Db :2-2-2-2---2---2-2-2-|2-2-2-2---2---2-2-2-|2-2-2-2---2---2-2-2-|

Ab :0-0-0-0---0---0-0-0-|2-2-2-2---2---2-2-2-|0-0-0-0---0---0-0-0-|

Eb :*-------------------|0-0-0-0---0---0-0-0-|*-------------------|

 

Eb :--------------------|--------------------|--------------------|

Bb :--------------------|--------------------|--------------------|

Gb :--------------------|--------------------|--------------------|

Db :--------------------|--------------------|--------------------|

Ab :--------------------|--------------------|--------------------|

Eb :--------------------|--------------------|--------------------|

 

Gb :--------------------|--------------------|--------------------|

Db :--------------------|2---2---1-2-1-2---2-|--------------------|

Ab :0---0---0-0---0---2-|--------------------|0---0---0-0---0---2-|

Eb :------------0-------|--------------------|------------0-------|

 

=============================================================================

 

Eb :--------------------|----------------|--------------------|

Bb :--------------------|----------------|--------------------|

Gb :7-7-7-7---7---7-7-7-|9-9-9-9-9-9-9-9-|2-2-2-2---2---2-2-2-|

Db :7-7-7-7---7---7-7-7-|9-9-9-9-9-9-9-9-|2-2-2-2---2---2-2-2-|

Ab :5-5-5-5---5---5-5-5-|7-7-7-7-7-7-7-7-|0-0-0-0---0---0-0-0-|

Eb :--------------------|----------------|--------------------|

 

Eb :--------------------|----------------|--------------------|

Bb :--------------------|----------------|--------------------|

Gb :--------------------|----------------|--------------------|

Db :--------------------|----------------|--------------------|

Ab :--------------------|----------------|--------------------|

Eb :--------------------|----------------|--------------------|

 

Gb :--------------------|----------------|--------------------|

Db :0---0---0-0---0---0-|2-2-2-2---------|--------------------|

Ab :------------0-------|--------2-2-3-3-|0---0---0-0---0---0-|

Eb :--------------------|----------------|------------0-------|

 

=============================================================================

 

Eb :--------------------|--------------------|--------------------|

Bb :--------------------|--------------------|--------------------|

Gb :2-2-2-2---2---2-2-2-|*-------------------|2-2-2-2---2---2-2-2-|

Db :2-2-2-2---2---2-2-2-|2-2-2-2---2---2-2-2-|2-2-2-2---2---2-2-2-|

Ab :0-0-0-0---0---0-0-0-|2-2-2-2---2---2-2-2-|0-0-0-0---0---0-0-0-|

Eb :*-------------------|0-0-0-0---0---0-0-0-|*-------------------|

 

Eb :--------------------|--------------------|--------------------|

Bb :--------------------|--------------------|--------------------|

Gb :--------------------|--------------------|--------------------|

Db :--------------------|--------------------|--------------------|

Ab :--------------------|--------------------|--------------------|

Eb :--------------------|--------------------|--------------------|

 

Gb :--------------------|--------------------|--------------------|

Db :--------------------|2---2---1-2-1-2---2-|--------------------|

Ab :0---0---0-0---0---2-|--------------------|0---0---0-0---0---2-|

Eb :------------0-------|--------------------|------------0-------|

 

=============================================================================

 

Eb :--------------------|--------------------|--------------------|

Bb :--------------------|--------------------|--------------------|

Gb :*-------------------|2-2-2-2---2---2-2-2-|*-------------------|

Db :2-2-2-2---2---2-2-2-|2-2-2-2---2---2-2-2-|2-2-2-2---2---2-2-2-|

Ab :2-2-2-2---2---2-2-2-|0-0-0-0---0---0-0-0-|2-2-2-2---2---2-2-2-|

Eb :0-0-0-0---0---0-0-0-|*-------------------|0-0-0-0---0---0-0-0-|

 

Eb :--------------------|--------------------|--------------------|

Bb :--------------------|--------------------|--------------------|

Gb :--------------------|--------------------|--------------------|

Db :--------------------|--------------------|--------------------|

Ab :--------------------|--------------------|--------------------|

Eb :--------------------|--------------------|--------------------|

 

Gb :--------------------|--------------------|--------------------|

Db :2---2---1-2-1-2---2-|--------------------|2---2---1-2-1-2---2-|

Ab :--------------------|0---0---0-0---0---2-|--------------------|

Eb :--------------------|------------0-------|--------------------|

 

=============================================================================

 

Eb :--------------------|--------------------|--------------------|

Bb :--------------------|--------------------|--------------------|

Gb :2-2-2-2---2---2-2-2-|*-------------------|2-2-2-2---2---2-2-2-|

Db :2-2-2-2---2---2-2-2-|2-2-2-2---2---2-2-2-|2-2-2-2---2---2-2-2-|

Ab :0-0-0-0---0---0-0-0-|2-2-2-2---2---2-2-2-|0-0-0-0---0---0-0-0-|

Eb :*-------------------|0-0-0-0---0---0-0-0-|*-------------------|

 

Eb :--------------------|--------------------|--------------------|

Bb :--------------------|--------------------|--------------------|

Gb :--------------------|--------------------|--------------------|

Db :--------------------|--------------------|--------------------|

Ab :--------------------|--------------------|--------------------|

Eb :--------------------|--------------------|--------------------|

 

Gb :--------------------|--------------------|--------------------|

Db :--------------------|2---2---1-2-1-2---2-|--------------------|

Ab :0---0---0-0---0---2-|--------------------|0---0---0-0---0---2-|

Eb :------------0-------|--------------------|------------0-------|

 

=============================================================================

 

Eb :--------------------|----------------|--------------------|

Bb :--------------------|----------------|--------------------|

Gb :7-7-7-7---7---7-7-7-|9-9-9-9-9-9-9-9-|2-2-2-2---2---2-2-2-|

Db :7-7-7-7---7---7-7-7-|9-9-9-9-9-9-9-9-|2-2-2-2---2---2-2-2-|

Ab :5-5-5-5---5---5-5-5-|7-7-7-7-7-7-7-7-|0-0-0-0---0---0-0-0-|

Eb :--------------------|----------------|--------------------|

 

Eb :--------------------|----------------|--------------------|

Bb :--------------------|----------------|--------------------|

Gb :--------------------|----------------|--------------------|

Db :--------------------|----------------|--------------------|

Ab :--------------------|----------------|--------------------|

Eb :--------------------|----------------|--------------------|

 

Gb :--------------------|----------------|--------------------|

Db :0---0---0-0---0---0-|2-2-2-2---------|--------------------|

Ab :------------0-------|--------2-2-3-3-|0---0---0-0---0---0-|

Eb :--------------------|----------------|------------0-------|

 

=============================================================================

 

Eb :----------------|----------------|----------------|----------------|

Bb :----------------|----------------|----------------|----------------|

Gb :*----4--5---5---|*----4--5---5---|*----4--5---5---|*---------------|

Db :2-2--4--5---5---|2-2--4--5---5---|2-2--4--5---5---|2-2-*-2-2-*-2-2-|

Ab :2-2--2--3---3---|2-2--2--3---3---|2-2--2--3---3---|2-2-*-2-2-*-2-2-|

Eb :0-0--*----------|0-0--*----------|0-0--*----------|0-0-*-0-0-*-0-0-|

 

Eb :----------------|----------------|----------------|----------------|

Bb :----------------|----------------|----------------|----------------|

Gb :----------------|----------------|----------------|9-9-*-9-9-*-9-9-|

Db :----------------|----------------|----------------|9-9-*-9-9-*-9-9-|

Ab :----------------|----------------|----------------|7-7-*-7-7-*-7-7-|

Eb :----------------|----------------|----------------|----------------|

 

Gb :----------------|----------------|----------------|----------------|

Db :----------------|----------------|----------------|----------------|

Ab :-----2--3---3---|*----2--3---3---|*----2--3---3---|7-7-*-7-7-*-7-7-|

Eb :0-0-------------|0-0--*----------|0-0--*----------|----------------|

 

=============================================================================

 

Eb :----------------|--------------------|--------------------|

Bb :----------------|--------------------|--------------------|

Gb :----------------|2-2-2-2---2---2-2-2-|*-------------------|

Db :*---------------|2-2-2-2---2---2-2-2-|2-2-2-2---2---2-2-2-|

Ab :*---------------|0-0-0-0---0---0-0-0-|2-2-2-2---2---2-2-2-|

Eb :*---------------|*-------------------|0-0-0-0---0---0-0-0-|

 

Eb :----------------|--------------------|--------------------|

Bb :----------------|--------------------|--------------------|

Gb :*---------------|--------------------|--------------------|

Db :*---------------|--------------------|--------------------|

Ab :*---------------|--------------------|--------------------|

Eb :----------------|--------------------|--------------------|

 

Gb :----------------|--------------------|--------------------|

Db :----------------|--------------------|2---2---1-2-1-2---2-|

Ab :*---------------|0---0---0-0---0---2-|--------------------|

Eb :----------------|------------0-------|--------------------|

 

=============================================================================

 

Eb :--------------------|--------------------|--------------------|

Bb :--------------------|--------------------|--------------------|

Gb :2-2-2-2---2---2-2-2-|*-------------------|2-2-2-2---2---2-2-2-|

Db :2-2-2-2---2---2-2-2-|2-2-2-2---2---2-2-2-|2-2-2-2---2---2-2-2-|

Ab :0-0-0-0---0---0-0-0-|2-2-2-2---2---2-2-2-|0-0-0-0---0---0-0-0-|

Eb :*-------------------|0-0-0-0---0---0-0-0-|*-------------------|

 

Eb :--------------------|--------------------|--------------------|

Bb :--------------------|--------------------|--------------------|

Gb :--------------------|--------------------|--------------------|

Db :--------------------|--------------------|--------------------|

Ab :--------------------|--------------------|--------------------|

Eb :--------------------|--------------------|--------------------|

 

Gb :--------------------|--------------------|--------------------|

Db :--------------------|2---2---1-2-1-2---2-|--------------------|

Ab :0---0---0-0---0---2-|--------------------|0---0---0-0---0---2-|

Eb :------------0-------|--------------------|------------0-------|

 

=============================================================================

 

Eb :--------------------|--------------------|--------------------|

Bb :--------------------|--------------------|--------------------|

Gb :*-------------------|2-2-2-2---2---2-2-2-|*-------------------|

Db :2-2-2-2---2---2-2-2-|2-2-2-2---2---2-2-2-|2-2-2-2---2---2-2-2-|

Ab :2-2-2-2---2---2-2-2-|0-0-0-0---0---0-0-0-|2-2-2-2---2---2-2-2-|

Eb :0-0-0-0---0---0-0-0-|*-------------------|0-0-0-0---0---0-0-0-|

 

Eb :--------------------|--------------------|--------------------|

Bb :--------------------|--------------------|--------------------|

Gb :--------------------|--------------------|--------------------|

Db :--------------------|--------------------|--------------------|

Ab :--------------------|--------------------|--------------------|

Eb :--------------------|--------------------|--------------------|

 

Gb :--------------------|--------------------|--------------------|

Db :2---2---1-2-1-2---2-|--------------------|2---2---1-2-1-2---2-|

Ab :--------------------|0---0---0-0---0---2-|--------------------|

Eb :--------------------|------------0-------|--------------------|

 

=============================================================================

 

Eb :--------------------|--------------------|----------------|

Bb :--------------------|--------------------|----------------|

Gb :2-2-2-2---2---2-2-2-|7-7-7-7---7---7-7-7-|9-9-9-9-9-9-9-9-|

Db :2-2-2-2---2---2-2-2-|7-7-7-7---7---7-7-7-|9-9-9-9-9-9-9-9-|

Ab :0-0-0-0---0---0-0-0-|5-5-5-5---5---5-5-5-|7-7-7-7-7-7-7-7-|

Eb :*-------------------|--------------------|----------------|

 

Eb :--------------------|--------------------|----------------|

Bb :--------------------|--------------------|----------------|

Gb :--------------------|--------------------|----------------|

Db :--------------------|--------------------|----------------|

Ab :--------------------|--------------------|----------------|

Eb :--------------------|--------------------|----------------|

 

Gb :--------------------|--------------------|----------------|

Db :--------------------|0---0---0-0---0---0-|2-2-2-2---------|

Ab :0---0---0-0---0---2-|------------0-------|--------2-2-3-3-|

Eb :------------0-------|--------------------|----------------|

 

=============================================================================

 

Eb :--------------------|----------------|----------------|

Bb :--------------------|----------------|----------------|

Gb :2-2-2-2---2---2-2-2-|*----4--5---5---|*----4--5---5---|

Db :2-2-2-2---2---2-2-2-|2-2--4--5---5---|2-2--4--5---5---|

Ab :0-0-0-0---0---0-0-0-|2-2--2--3---3---|2-2--2--3---3---|

Eb :--------------------|0-0--*----------|0-0--*----------|

 

Eb :--------------------|----------------|----------------|

Bb :--------------------|----------------|----------------|

Gb :--------------------|----------------|----------------|

Db :--------------------|----------------|----------------|

Ab :--------------------|----------------|----------------|

Eb :--------------------|----------------|----------------|

 

Gb :--------------------|----------------|----------------|

Db :--------------------|----------------|----------------|

Ab :0---0---0-0---0---0-|*----2--3---3---|*----2--3---3---|

Eb :------------0-------|0-0--*----------|0-0--*----------|

 

=============================================================================

 

Eb :----------------|----------------|----------------|----------------|

Bb :----------------|----------------|----------------|----------------|

Gb :*----4--5---5---|*---------------|7-7-7-*-7-7-7-*-|7-7-7-*-7-7-7-*-|

Db :2-2--4--5---5---|2-2-*-2-2-*-2-2-|7-7-7-*-7-7-7-*-|7-7-7-*-7-7-7-*-|

Ab :2-2--2--3---3---|2-2-*-2-2-*-2-2-|5-5-5-*-5-5-5-*-|5-5-5-*-5-5-5-*-|

Eb :0-0--*----------|0-0-*-0-0-*-0-0-|*---------------|----------------|

 

Eb :----------------|----------------|----------------|----------------|

Bb :----------------|----------------|----------------|----------------|

Gb :----------------|9-9-*-9-9-*-9-9-|*---------------|----------------|

Db :----------------|9-9-*-9-9-*-9-9-|*---------------|----------------|

Ab :----------------|7-7-*-7-7-*-7-7-|*---------------|----------------|

Eb :----------------|----------------|----------------|----------------|

 

Gb :----------------|----------------|----------------|----------------|

Db :----------------|----------------|----------------|----------------|

Ab :*----2--3---3---|7-7-*-7-7-*-7-7-|5-5-5-*-5-5-5-*-|5-5-5-*-5-5-5-*-|

Eb :0-0--*----------|----------------|----------------|----------------|

 

=============================================================================

 

Eb :----------------|----------------|----------------|----------------|

Bb :----------------|----------------|----------------|----------------|

Gb :----------------|----------------|7-7-7-*-7-7-7-*-|7-7-7-*-7-7-7-*-|

Db :7-7-7-*-7-7-7-*-|7-7-7-*-7-7-7-*-|7-7-7-*-7-7-7-*-|7-7-7-*-7-7-7-*-|

Ab :7-7-7-*-7-7-7-*-|7-7-7-*-7-7-7-*-|5-5-5-*-5-5-5-*-|5-5-5-*-5-5-5-*-|

Eb :5-5-5-*-5-5-5-*-|5-5-5-*-5-5-5-*-|*---------------|----------------|

 

Eb :----------------|----------------|----------------|----------------|

Bb :----------------|----------------|----------------|----------------|

Gb :----------------|----------------|----------------|----------------|

Db :----------------|----------------|----------------|----------------|

Ab :----------------|----------------|----------------|----------------|

Eb :----------------|----------------|----------------|----------------|

 

Gb :----------------|----------------|----------------|----------------|

Db :----------------|----------------|----------------|----------------|

Ab :----------------|----------------|5-5-5-*-5-5-5---|5-5-5-*-5-5-5-*-|

Eb :5-5-5-*-5-5-5-*-|5-5-5-*-5-5-5-*-|*---------------|----------------|

 

=============================================================================

 

Eb :----------------|---------------------|-----------------------|

Bb :----------------|---------------------|-----------------------|

Gb :----------------|---------------------|-2-2---2-2-2---2--2--2-|

Db :2-2-2-*-2-2-2-*-|---------------------|-2-2---2-2-2---2--2--2-|

Ab :2-2-2-*-2-2-2-*-|---------------------|-0-0---0-0-0---0--0--0-|

Eb :0-0-0-*-0-0-0-*-|---------------------|-*---------------------|

 

Eb :----------------|---------------------|-----------------------|

Bb :----------------|17--*----------------|--------------------13-|

Gb :----------------|---17--*-------16--*-|-----9---8---7----*----|

Db :----------------|------14-13-12--*-12-|10---*-----------10--*-|

Ab :----------------|---------------------|-----------------------|

Eb :----------------|---------------------|-----------------------|

 

Gb :----------------|---------------------|-----------------------|

Db :----------------|---------------------|-----------------------|

Ab :----------------|---------------------|-0-0---0-0-0---0--0--0-|

Eb :0-0-0-*-0-0-0-*-|---------------------|-----------------------|

 

=============================================================================

 

Eb :-----------------|------------------------|-------------------|

Bb :-----------------|------------------------|-------------------|

Gb :*----------------|-2-2----2--2--2-2---2-2-|-*-----------------|

Db :2--2-2-2-2-2-2-2-|-2-2----2--2--2-2---2-2-|-2-2---2-2-2-2-2-2-|

Ab :2--2-2-2-2-2-2-2-|-0-0----0--0--0-0---0-0-|-2-2---2-2-2-2-2-2-|

Eb :0--0-0-0-0-0-0-0-|-*----------------------|-0-0---0-0-0-0-0-0-|

 

Eb :-----------------|------------------------|-------------------|

Bb :--12-----------*-|13---12----*------------|-------------------|

Gb :---------------9-|-*----------------------|-------------------|

Db :-----------------|----------12-10---9---7-|10---9-------------|

Ab :-----------------|------------------------|-------------------|

Eb :-----------------|------------------------|-------------------|

 

Gb :-----------------|------------------------|-------------------|

Db :-----------------|------------------------|-------------------|

Ab :*----------------|-0-0----0--0--0-0---0-0-|-*-----------------|

Eb :0--0-0-0-0-0-0-0-|-*----------------------|-0-0---0-0-0-0-0-0-|

 

=============================================================================

 

Eb :------------------------|------------------------|

Bb :------------------------|------------------------|

Gb :-2--2--2--2--2--2--2--2-|-7--7--7--7--7--7--7--7-|

Db :-2--2--2--2--2--2--2--2-|-7--7--7--7--7--7--7--7-|

Ab :-0--0--0--0--0--0--0--0-|-5--5--5--5--5--5--5--5-|

Eb :-*----------------------|------------------------|

 

Eb :------------------------|10-10-10-10-10-10-10-10-|

Bb :10-10-10-10-10-10-10-10-|-*----------------------|

Gb :------------------------|------------------------|

Db :-*----------------------|------------------------|

Ab :------------------------|------------------------|

Eb :------------------------|------------------------|

 

Gb :------------------------|------------------------|

Db :------------------------|------------------------|

Ab :-0--0--0--0--0--0--0--0-|-5--5--5--5--5--5--5--5-|

Eb :-*----------------------|------------------------|

 

=============================================================================

 

Eb :-----------------------|------------------|----------------|

Bb :-----------------------|------------------|----------------|

Gb :-9--9--9--9--9--9-9--9-|-2--2-2-2-2-2-2-2-|*----4--5---5---|

Db :-9--9--9--9--9--9-9--9-|-2--2-2-2-2-2-2-2-|2-2--4--5---5---|

Ab :-7--7--7--7--7--7-7--7-|-0--0-0-0-0-0-0-0-|2-2--2--3---3---|

Eb :-----------------------|------------------|0-0--*----------|

 

Eb :22-22-20-20-19-16---19-|19-17-------------|----------------|

Bb :-----------------------|------------------|----------------|

Gb :-----------------------|------------------|----------------|

Db :-----------------------|------------------|----------------|

Ab :-----------------------|------------------|----------------|

Eb :-----------------------|------------------|----------------|

 

Gb :-----------------------|------------------|----------------|

Db :-----------------------|------------------|----------------|

Ab :-7--7--7--7--7--7-7--7-|-0--0-0-0-0-0-0-0-|*----2--3---3---|

Eb :-----------------------|------------------|0-0--*----------|

 

=============================================================================

 

Eb :----------------|----------------|----------------|----------------|

Bb :----------------|----------------|----------------|----------------|

Gb :*----4--5---5---|*----4--5---5---|*---------------|----------------|

Db :2-2--4--5---5---|2-2--4--5---5---|2-2-*-2-2-*-2-2-|*---------------|

Ab :2-2--2--3---3---|2-2--2--3---3---|2-2-*-2-2-*-2-2-|*---------------|

Eb :0-0--*----------|0-0--*----------|0-0-*-0-0-*-0-0-|*---------------|

 

Eb :----------------|----------------|----------------|----------------|

Bb :----------------|----------------|----------------|----------------|

Gb :----------------|----------------|9-9-*-9-9-*-9-9-|*---------------|

Db :----------------|----------------|9-9-*-9-9-*-9-9-|*---------------|

Ab :----------------|----------------|7-7-*-7-7-*-7-7-|*---------------|

Eb :----------------|----------------|----------------|----------------|

 

Gb :----------------|----------------|----------------|----------------|

Db :----------------|----------------|----------------|----------------|

Ab :*----2--3---3---|*----2--3---3---|7-7-*-7-7-*-7-7-|*---------------|

Eb :0-0--*----------|0-0--*----------|----------------|----------------|

 

=============================================================================

 

Eb :------------------------|------------------|------------------------|

Bb :------------------------|------------------|------------------------|

Gb :-2--2--2--2--2--2--2--2-|-4--4--4--4--4--4-|-5--5--5--5--5--5--5--5-|

Db :-2--2--2--2--2--2--2--2-|-4--4--4--4--4--4-|-5--5--5--5--5--5--5--5-|

Ab :-0--0--0--0--0--0--0--0-|-2--2--2--2--2--2-|-3--3--3--3--3--3--3--3-|

Eb :------------------------|------------------|------------------------|

 

Eb :------------------------|------------------|------------------------|

Bb :------------------------|------------------|------------------------|

Gb :14-14-14-14-14-14-14-14-|16-16-16-16-16-16-|17-17-17-17-17-17-17-17-|

Db :------------------------|------------------|------------------------|

Ab :12-12-12-12-12-12-12-12-|14-14-14-14-14-14-|15-15-15-15-15-15-15-15-|

Eb :------------------------|------------------|------------------------|

 

Gb :------------------------|------------------|------------------------|

Db :------------------------|------------------|------------------------|

Ab :-0--0--0--0--0--0--0--0-|-2--2--2--2--2--2-|-3--3--3--3--3--3--3--3-|

Eb :------------------------|------------------|------------------------|

 

=============================================================================

 

Eb :------------------|------------------------|------------------|

Bb :------------------|------------------------|------------------|

Gb :-7--7--7--7--7--7-|-9--9--9--9--9--9--9--9-|10-10-10-10-10-10-|

Db :-7--7--7--7--7--7-|-9--9--9--9--9--9--9--9-|10-10-10-10-10-10-|

Ab :-5--5--5--5--5--5-|-7--7--7--7--7--7--7--7-|-8--8--8--8--8--8-|

Eb :------------------|------------------------|------------------|

 

Eb :------------------|------------------------|------------------|

Bb :------------------|------------------------|------------------|

Gb :19-19-19-19-19-19-|21-21-21-21-21-21-21-21-|22-22-22-22-22-22-|

Db :------------------|------------------------|------------------|

Ab :17-17-17-17-17-17-|19-19-19-19-19-19-19-19-|20-20-20-20-20-20-|

Eb :------------------|------------------------|------------------|

 

Gb :------------------|------------------------|------------------|

Db :------------------|------------------------|------------------|

Ab :-5--5--5--5--5--5-|-7--7--7--7--7--7--7--7-|-8--8--8--8--8--8-|

Eb :------------------|------------------------|------------------|

 

=============================================================================

 

Eb :------------------------|------------------|-------------------|

Bb :------------------------|------------------|-------------------|

Gb :12-12-12-12-12-12-12-12-|12-12-12-12-12-12-|-*-----------------|

Db :12-12-12-12-12-12-12-12-|12-12-12-12-12-12-|-7--7--7-----------|

Ab :10-10-10-10-10-10-10-10-|10-10-10-10-10-10-|-7--7--7-----------|

Eb :------------------------|------------------|-5--5--5-----------|

 

Eb :------------------------|------------------|-------------------|

Bb :------------------------|------------------|-------------------|

Gb :24-24-24-24-24-24-24-24-|-7--8--9-10-12-13-|14-14-14-----------|

Db :------------------------|------------------|-------------------|

Ab :22-22-22-22-22-22-22-22-|-5--6--7--8-10-11-|12-12-12-----------|

Eb :------------------------|------------------|-------------------|

 

Gb :------------------------|------------------|-------------------|

Db :-5--5--5--5--5--5--5--5-|-5--5--5--5--5--5-|-*-----------------|

Ab :-*----------------------|------------------|-------------------|

Eb :------------------------|------------------|-5--5--5-----------|

 

=============================================================================

 

Eb :----------------|

Bb :----------------|

Gb :----------------|

Db :*---------------|

Ab :*---------------|

Eb :*---------------|

 

Eb :----------------|

Bb :----------------|

Gb :*---------------|

Db :----------------|

Ab :*---------------|

Eb :----------------|

 

Gb :----------------|

Db :----------------|

Ab :----------------|

Eb :*---------------|

 

Return to my to my Weezer tabs page

The Tablature is Copyright its respective owners.

Sign Up For My Newsletter
Subscribe | Unsubscribe

Site Map | Disclaimer | Privacy Policy | Media Kit | Submissions/Corrections

Website © 2000-2014 mattsmusicpage.com. All rights reserved.

Legal & DMCA: Matt's Music Page has been providing lyrics and tabs in a legal way, paying royalties each year to a few organizations. Then, all lyrics and tabs were removed from the site. Now, there's a new owner to the site, which purchased it August 26, 2014, and he is in negotiation to obtain licensing from BMI at the moment. If you have a specific DMCA request -- please do not hesitate to contact me via the contact button on top. I will do my very best to keep this site fully legal.

Get our toolbar!

 

Hard Rock Pin Las Vegas 4th of july red white and blue guitar
$5.0
Hard Rock Pin Las Vegas 4th of july red white and blue guitar picture


Hard Rock Pin Hollywood Fl Bell Girl with dice luggage and guitar
$5.0
Hard Rock Pin Hollywood Fl Bell Girl with dice luggage and guitar picture


Hard Rock Pin Las Vegas King of Clubs Guitar rare only 3 lines of info on back
$5.0
Hard Rock Pin Las Vegas King of Clubs Guitar rare only 3 lines of info on back picture


Hard Rock Pin Edmonton guitar pin
$5.0
Hard Rock Pin Edmonton guitar pin picture


Lladro Guitar Boy #4614 - Beautiful Piece of Lladro
$109.0
Lladro Guitar Boy #4614 - Beautiful Piece of Lladro picture