Your One-Stop Source For
Music Lyrics
Bass and Guitar Tabs
and More...
>Music Lyrics Bass and Guitar Tabs

 

The Tabs Are Below

Learn To Read Tab
Chords Handbook
Corrections & Additions
Get Official Tab
Weezer tabs @ 911Tabs

STARLIGHT - Weezer

-------------------------------------------------------------------------------

b-side from "the green album" (2001)

 

By: Jake Shenker

Montreal, Quebec

shenkj@hotmail.com

 

"Starlight" is my favourite B-Side from The Green Album. If you

don't have it I seriously recommend downloading it from Napster.

 

 

Intro:

 

A E G#

e|---------------------------------------------------------------------------|

B|---------------------------------------------------------------------------|

G|---------------6-----------------------------------------------------------|

D|---7-7-7-7-7-----x-9-9-9-9-9-9-9-9-10-10-10-10-10-10-10-10...--------------|

A|-------------7-------------------------------------------------------------|

E|---------------------------------------------------------------------------|

 

C#

That's alright

F#

That's Ok

G# C#

I'll keep holding on today

F# G# C#

'Cause I'm waiting for the starlight in your eyes

 

C#

No more faith

F#

No more hope

G# C#

All that I can do is grope

F# G# C#

For a shred of loving care from my girl

 

A# G#

The pain you felt has burdened you

 

You can't feel loved

F# G#

I'm glad that I have been with you

 

But thats not enough

 

 

C# F#

In your arms I would be

G# C#

Overjoyed as any boy

F# G#

Holding on to what he loves

C#

Oh so much

 

C# F#

Feel your touch every night

G# C#

When I dreamed to be alright

F# G#

There you are in front of me

C#

With your smile

 

A# G#

The pain you felt has burdened you

 

You can't feel loved

F# G#

I'm glad that I have been with you

 

But thats not enough

 

A E G#

Whoa-oa, thats not enough

 

 

Solo (play twice):

 

e|---------------------------------------------------------------------------|

B|---------------------------------------------------------------------------|

G|-10-10-10---10-10----------------------------------------------------------|

D|------------------8---8-11-10-8-6-8-3--------------------------------------|

A|---------------------------------------8-8-8-6-6-4-3-4-6-6--6h8p6-4--------|

E|---------------------------------------------------------------------------|

 

A# G#

The pain you felt has burdened you

 

You can't feel loved

F# G#

I'm glad that I have been with you

 

But thats not enough

 

A E G#

Whoa-oa, thats not enough

 

C# F#

In your arms I would be

G# C#

Overjoyed as any boy

F# G#

Holding on to what he loves

C#

Oh so much

 

F# G#

Holding on to what he loves

C#

Oh so much

 

F# G#

Holding on to what he loves

C#

Oh so much

 

Return to my to my Weezer tabs page

The Tablature is Copyright its respective owners.

Sign Up For My Newsletter
Subscribe | Unsubscribe

Site Map | Disclaimer | Privacy Policy | Media Kit | Submissions/Corrections

Website © 2000-2014 mattsmusicpage.com. All rights reserved.

Legal & DMCA: Matt's Music Page has been providing lyrics and tabs in a legal way, paying royalties each year to a few organizations. Then, all lyrics and tabs were removed from the site. Now, there's a new owner to the site, which purchased it August 26, 2014, and he is in negotiation to obtain licensing from BMI at the moment. If you have a specific DMCA request -- please do not hesitate to contact me via the contact button on top. I will do my very best to keep this site fully legal.

Get our toolbar!

 

Vintage Genuine Incolay San Francisco Music Box Company Cherubs Jewelry Box
$15.0
Vintage Genuine Incolay San Francisco Music Box Company Cherubs Jewelry Box picture


VINTAGE RETRO 1990's "FUNK MASTER FLEX" KEY CHAIN BRAND keychain
$7.99
VINTAGE RETRO 1990's


1985 Vintage Photo by PHOTOGRAPHER JAMES O'MARA Canadian rock band Loverboy
$11.0
1985 Vintage Photo by PHOTOGRAPHER JAMES O'MARA Canadian rock band Loverboy picture


Vintage Musical Glass Swan Figurine - Plays Memories - Rotates - Linden Music
$6.99
Vintage Musical Glass Swan Figurine - Plays Memories - Rotates - Linden Music  picture


Vintage Working Mickey Mouse and Friends Jewelry Music Box
$0.99
Vintage Working Mickey Mouse and Friends Jewelry Music Box picture