Your One-Stop Source For
Music Lyrics
Bass and Guitar Tabs
and More...
Music Lyrics Bass and Guitar Tabs

 

The Tabs Are Below

Learn To Read Tab
Chords Handbook
Corrections & Additions
Get Official Tab
Weezer tabs @ 911Tabs

Weezer - Smile

Tabbed by: Evil Adam (KurtCobain38@hotmail.com)

 

[This was created with TabIt for Windows version 1.53]

 

E :------------------------|------------------------|

B :------------------------|------------------------|

G :2-2---2-2---2---2-2---2-|2-2---2-2---2---2-2---2-|

D :2-2---2-2---2---2-2---2-|2-2---2-2---2---2-2---2-|

A :0-0---0-0---0---0-0---0-|0-0---0-0---0---0-0---0-|

E :------------------------|------------------------|

 

E :------------------------|------------------------|

B :------------------------|------------------------|

G :------------------------|------------------------|

D :------------4-*---------|------------4-*---------|

A :--4-7-7-7-4-*-7-7-------|--4-7-7-7-4-*-7-7-------|

E :------------------------|------------------------|

 

G :------------------------|------------------------|

D :------------------------|------------------------|

A :0-----0-----0-----0-----|0-----0-----0-----0-----|

E :--------------------2-4-|--------------------2-4-|

 

=============================================================================

 

E :----------------------------------------------|---------------------|

B :----------------------------------------------|---------------------|

G :4--4-------4----4------4-------4--4------4----|--4--4-4-4-4--4--4-4-|

D :4--4-------4----4------4-------4--4------4----|--4--4-4-4-4--4--4-4-|

A :2--2-------2----2------2-------2--2------2----|--2--2-2-2-2--2--2-2-|

E :----------------------------------------------|---------------------|

 

E :----------------------------------------------|---------------------|

B :----------------------------------------------|---------------------|

G :--(8)(11)(11)-(11)(8)(13)(11)(11)---(6)(11)(8)|(11)---------(8)-----|

D :---6---9---9----9--6--11---9---9-----6---9--6-|--9------------------|

A :---*------------------------------------------|---------------------|

E :----------------------------------------------|---------------------|

 

G :----------------------------------------------|---------------------|

D :----------------------------------------------|---------------------|

A :2----------2-----------2----------2-----------|--2----2---2-----2---|

E :----------------------------------------------|---------------------|

 

=============================================================================

 

E :----------------|----------------|----------------|----------------|

B :----------------|----------------|----------------|----------------|

G :----------------|----------------|4-4-4-4-5-5-5-5-|6-6-6-6---------|

D :2-2-2-2-6-6-6-6-|7-7-7-7-4-4-4-4-|4-4-4-4-5-5-5-5-|6-6-6-6-6-6-6-6-|

A :2-2-2-2-6-6-6-6-|7-7-7-7-4-4-4-4-|2-2-2-2-3-3-3-3-|4-4-4-4-6-6-6-6-|

E :0-0-0-0-4-4-4-4-|5-5-5-5-2-2-2-2-|----------------|--------4-4-4-4-|

 

E :----------------|----------------|----------------|----------------|

B :----------------|----------------|----------------|----------------|

G :*---------------|----------------|----------------|----------------|

D :*---------------|----------------|----------------|----------------|

A :----------------|----------------|----------------|----------------|

E :----------------|----------------|----------------|----------------|

 

G :----------------|----------------|----------------|----------------|

D :----------------|----------------|----------------|----------------|

A :----------------|----------------|2-2-2-2-3-3-3-3-|4-4-4-4---------|

E :0-0-0-0-4-4-4-4-|5-5-5-5-2-2-2-2-|----------------|--------4-4-4-4-|

 

=============================================================================

 

E :----------------|----------------|----------------|----------------|

B :----------------|----------------|----------------|----------------|

G :----------------|--------6-6-6-6-|2-2-2-2-2-2-2-2-|4-4-4-4-4-4-4-4-|

D :7-7-7-7-9-9-9-9-|2-2-2-2-6-6-6-6-|2-2-2-2-2-2-2-2-|4-4-4-4-4-4-4-4-|

A :7-7-7-7-9-9-9-9-|2-2-2-2-4-4-4-4-|0-0-0-0-0-0-0-0-|2-2-2-2-2-2-2-2-|

E :5-5-5-5-7-7-7-7-|0-0-0-0---------|----------------|----------------|

 

E :----------------|----------------|----------------|----------------|

B :----------------|----------------|----------------|----------------|

G :----------------|----------------|----------------|----------------|

D :----------------|----------------|----------------|----------------|

A :----------------|----------------|----------------|----------------|

E :----------------|----------------|----------------|----------------|

 

G :----------------|----------------|----------------|----------------|

D :----------------|----------------|----------------|----------------|

A :----------------|--------4-4-4-4-|0-0-0-0-0-0-0-0-|2-2-2-2-2-2-2-2-|

E :5-5-5-5-7-7-7-7-|0-0-0-0---------|----------------|----------------|

 

=============================================================================

 

E :----------------|----------------|----------------|----------------|

B :----------------|----------------|----------------|----------------|

G :----------------|----------------|4-4-4-4-5-5-5-5-|6-6-6-6---------|

D :2-2-2-2-6-6-6-6-|7-7-7-7-4-4-4-4-|4-4-4-4-5-5-5-5-|6-6-6-6-6-6-6-6-|

A :2-2-2-2-6-6-6-6-|7-7-7-7-4-4-4-4-|2-2-2-2-3-3-3-3-|4-4-4-4-6-6-6-6-|

E :0-0-0-0-4-4-4-4-|5-5-5-5-2-2-2-2-|----------------|--------4-4-4-4-|

 

E :----------------|----------------|----------------|----------------|

B :----------------|----------------|----------------|----------------|

G :----------------|----------------|----------------|----------------|

D :----------------|----------------|----------------|----------------|

A :----------------|----------------|----------------|----------------|

E :----------------|----------------|----------------|----------------|

 

G :----------------|----------------|----------------|----------------|

D :----------------|----------------|----------------|----------------|

A :----------------|----------------|2-2-2-2-3-3-3-3-|4-4-4-4---------|

E :0-0-0-0-4-4-4-4-|5-5-5-5-2-2-2-2-|----------------|--------4-4-4-4-|

 

=============================================================================

 

E :----------------|----------------|----------------|----------------|

B :----------------|----------------|----------------|----------------|

G :----------------|--------6-6-6-6-|2-2-2-2-2-2-2-2-|4-4-4-4-4-4-4-4-|

D :7-7-7-7-9-9-9-9-|2-2-2-2-6-6-6-6-|2-2-2-2-2-2-2-2-|4-4-4-4-4-4-4-4-|

A :7-7-7-7-9-9-9-9-|2-2-2-2-4-4-4-4-|0-0-0-0-0-0-0-0-|2-2-2-2-2-2-2-2-|

E :5-5-5-5-7-7-7-7-|0-0-0-0---------|----------------|----------------|

 

E :----------------|----------------|----------------|----------------|

B :----------------|----------------|----------------|----------------|

G :----------------|----------------|----------------|----------------|

D :----------------|----------------|----------------|----------------|

A :----------------|----------------|----------------|----------------|

E :----------------|----------------|----------------|----------------|

 

G :----------------|----------------|----------------|----------------|

D :----------------|----------------|----------------|----------------|

A :----------------|--------4-4-4-4-|0-0-0-0-0-0-0-0-|2-2-2-2-2-2-2-2-|

E :5-5-5-5-7-7-7-7-|0-0-0-0---------|----------------|----------------|

 

=============================================================================

 

E :----------------|----------------|----------------|----------------|

B :----------------|----------------|----------------|----------------|

G :2-2-2-2-2-2-2-2-|4-4-4-4-4-4-4-4-|--------8-8-8-8-|6-6-6-6-4-4-4-4-|

D :2-2-2-2-2-2-2-2-|4-4-4-4-4-4-4-4-|2-2-2-2-8-8-8-8-|6-6-6-6-4-4-4-4-|

A :0-0-0-0-0-0-0-0-|2-2-2-2-2-2-2-2-|2-2-2-2-6-6-6-6-|4-4-4-4-2-2-2-2-|

E :----------------|----------------|0-0-0-0---------|----------------|

 

E :----------------|----------------|----------------|----------------|

B :----------------|----------------|----------------|----------------|

G :----------------|----------------|----------------|----------------|

D :----------------|----------------|----------------|----------------|

A :----------------|----------------|----------------|----------------|

E :----------------|----------------|----------------|----------------|

 

G :----------------|----------------|----------------|----------------|

D :----------------|----------------|----------------|----------------|

A :0-0-0-0-0-0-0-0-|2-2-2-2-2-2-2-2-|--------6-6-6-6-|4-4-4-4-2-2-2-2-|

E :----------------|----------------|0-0-0-0---------|----------------|

 

=============================================================================

 

E :------------------|------------------|----------------|

B :------------------|------------------|----------------|

G :2-2-2-2-2-2-2---2-|2-2-2-2-2-2-2---2-|4-4-4-4-4-4-4-4-|

D :2-2-2-2-2-2-2---2-|2-2-2-2-2-2-2---2-|4-4-4-4-4-4-4-4-|

A :0-0-0-0-0-0-0---0-|0-0-0-0-0-0-0---0-|2-2-2-2-2-2-2-2-|

E :------------------|------------------|----------------|

 

E :------------------|------------------|----------------|

B :------------------|------------------|----------------|

G :------------------|------------------|----------------|

D :------------------|------------------|----------------|

A :------------------|------------------|----------------|

E :------------------|------------------|----------------|

 

G :------------------|------------------|----------------|

D :------------------|------------------|----------------|

A :0-0-0-0-0-0-0-----|0-0-0-0-0-0-0-----|2-2-2-2-2-2-2-2-|

E :--------------2-4-|--------------2-4-|----------------|

 

=============================================================================

 

E :----------------|------------------------|

B :----------------|------------------------|

G :4-4-4-4-4-4-4-4-|------------------------|

D :4-4-4-4-4-4-4-4-|2---2---2---2---6-6-6-6-|

A :2-2-2-2-2-2-2-2-|2---2---2---2---6-6-6-6-|

E :----------------|0---0---0---0---4-4-4-4-|

 

E :----------------|------------------------|

B :----------------|------------------------|

G :----------------|------------------------|

D :----------------|6-9-6-9---6-9-6-9-9-9---|

A :----------------|------------------------|

E :----------------|------------------------|

 

G :----------------|------------------------|

D :----------------|------------------------|

A :2-2-2-2-2-2-2-2-|------------------------|

E :----------------|0---0---0---0---4-4-4-4-|

 

=============================================================================

 

E :-------------------------------|-----------------|

B :-------------------------------|-----------------|

G :-------------------------------|4-4-4-4-5-5-5-5--|

D :7----7----7----7----4--4--4--4-|4-4-4-4-5-5-5-5--|

A :7----7----7----7----4--4--4--4-|2-2-2-2-3-3-3-3--|

E :5----5----5----5----2--2--2--2-|-----------------|

 

E :-------------------------------|-----------------|

B :-------------------------------|-----------------|

G :-------------------------------|-----------------|

D :9-11-9-11---9-11-9-11-11-11-11-|9-9-9-------7-7-7|

A :-------------------------------|-----------------|

E :-------------------------------|-----------------|

 

G :-------------------------------|-----------------|

D :-------------------------------|-----------------|

A :-------------------------------|2-2-2-2-3-3-3-3--|

E :5----5----5----5----2--2--2--2-|-----------------|

 

=============================================================================

 

E :--------------------|----------------|----------------|

B :--------------------|----------------|----------------|

G :6---6-6-6-----------|----------------|--------6-6-6-6-|

D :6---6-6-6--6--6-6-6-|7-7-7-7-9-9-9-9-|2-2-2-2-6-6-6-6-|

A :4---4-4-4--6--6-6-6-|7-7-7-7-9-9-9-9-|2-2-2-2-4-4-4-4-|

E :-----------4--4-4-4-|5-5-5-5-7-7-7-7-|0-0-0-0---------|

 

E :--------------------|----------------|----------------|

B :----------(9)-------|*---------------|----------------|

G :--------------------|----------------|----------------|

D :--6-----------------|*---------------|----------------|

A :--------------------|----------------|----------------|

E :--------------------|----------------|----------------|

 

G :--------------------|----------------|----------------|

D :--------------------|----------------|----------------|

A :4---4-4-4-----------|----------------|--------4-4-4-4-|

E :-----------4--4-4-4-|5-5-5-5-7-7-7-7-|0-0-0-0---------|

 

=============================================================================

 

E :----------------|----------------|----------------|----------------|

B :----------------|----------------|----------------|----------------|

G :2-2-2-2-2-2-2-2-|4-4-4-4-4-4-4-4-|2-2-2-2-2-2-2-2-|4-4-4-4-4-4-4-4-|

D :2-2-2-2-2-2-2-2-|4-4-4-4-4-4-4-4-|2-2-2-2-2-2-2-2-|4-4-4-4-4-4-4-4-|

A :0-0-0-0-0-0-0-0-|2-2-2-2-2-2-2-2-|0-0-0-0-0-0-0-0-|2-2-2-2-2-2-2-2-|

E :----------------|----------------|----------------|----------------|

 

E :----------------|----------------|----------------|----------------|

B :----------------|----------------|----------------|----------------|

G :----------------|----------------|----------------|----------------|

D :----------------|----------------|----------------|----------------|

A :----------------|----------------|----------------|----------------|

E :----------------|----------------|----------------|----------------|

 

G :----------------|----------------|----------------|----------------|

D :----------------|----------------|----------------|----------------|

A :0-0-0-0-0-0-0-0-|2-2-2-2-2-2-2-2-|0-0-0-0-0-0-0-0-|2-2-2-2-2-2-2-2-|

E :----------------|----------------|----------------|----------------|

 

=============================================================================

 

E :----------------|----------------|----------------|----------------|

B :----------------|----------------|----------------|----------------|

G :--------8-8-8-8-|6-6-6-6-4-4-4-4-|2-2-2-2-2-2-2-2-|2-2-2-2-2-2-2-2-|

D :2-2-2-2-8-8-8-8-|6-6-6-6-4-4-4-4-|2-2-2-2-2-2-2-2-|2-2-2-2-2-2-2-2-|

A :2-2-2-2-6-6-6-6-|4-4-4-4-2-2-2-2-|0-0-0-0-0-0-0-0-|0-0-0-0-0-0-0-0-|

E :0-0-0-0---------|----------------|----------------|----------------|

 

E :----------------|----------------|----------------|----------------|

B :----------------|----------------|----------------|----------------|

G :----------------|----------------|----------------|----------------|

D :----------------|----------------|----------------|----------------|

A :----------------|----------------|----------------|----------------|

E :----------------|----------------|----------------|----------------|

 

G :----------------|----------------|----------------|----------------|

D :----------------|----------------|----------------|----------------|

A :--------6-6-6-6-|4-4-4-4-2-2-2-2-|0-0-0-0-0-0-0-0-|0-0-0-0-0-0-0-0-|

E :0-0-0-0---------|----------------|----------------|----------------|

 

=============================================================================

 

E :----------------|----------------|----------------|----------------|

B :----------------|----------------|----------------|----------------|

G :4-4-4-4-4-4-4-4-|4-4-4-4-4-4-4-4-|----------------|----------------|

D :4-4-4-4-4-4-4-4-|4-4-4-4-4-4-4-4-|2-2-2-2-6-6-6-6-|7-7-7-7-4-4-4-4-|

A :2-2-2-2-2-2-2-2-|2-2-2-2-2-2-2-2-|2-2-2-2-6-6-6-6-|7-7-7-7-4-4-4-4-|

E :----------------|----------------|0-0-0-0-4-4-4-4-|5-5-5-5-2-2-2-2-|

 

E :----------------|----------------|----------------|----------------|

B :----------------|----------------|----------------|----------------|

G :----------------|----------------|----------------|----------------|

D :----------------|----------------|----------------|----------------|

A :----------------|----------------|----------------|----------------|

E :----------------|----------------|----------------|----------------|

 

G :----------------|----------------|----------------|----------------|

D :----------------|----------------|----------------|----------------|

A :2-2-2-2-2-2-2-2-|2-2-2-2-2-2-2-2-|----------------|----------------|

E :----------------|----------------|0-0-0-0-4-4-4-4-|5-5-5-5-2-2-2-2-|

 

=============================================================================

 

E :----------------|----------------|----------------|

B :----------------|5---------------|*---------------|

G :4-------5-------|6---------------|*---------------|

D :4-------5-------|6---------------|*---------------|

A :2-------3-------|4---------------|*---------------|

E :----------------|----------------|----------------|

 

E :----------------|----------------|----------------|

B :----------------|----------------|----------------|

G :----------------|----------------|----------------|

D :----------------|----------------|----------------|

A :----------------|----------------|----------------|

E :----------------|----------------|----------------|

 

G :----------------|----------------|----------------|

D :----------------|----------------|----------------|

A :2-------3-------|4---------------|*---------------|

E :----------------|----------------|----------------|

 

 

Return to my to my Weezer tabs page

The Tablature is Copyright its respective owners.

Sign Up For My Newsletter
Subscribe | Unsubscribe

Site Map | Disclaimer | Privacy Policy | Media Kit | Submissions/Corrections

Website © 2000-2014 mattsmusicpage.com. All rights reserved.

Legal & DMCA: Matt's Music Page has been providing lyrics and tabs in a legal way, paying royalties each year to a few organizations. Then, all lyrics and tabs were removed from the site. Now, there's a new owner to the site, which purchased it August 26, 2014, and he is in negotiation to obtain licensing from BMI at the moment. If you have a specific DMCA request -- please do not hesitate to contact me via the contact button on top. I will do my very best to keep this site fully legal.

Get our toolbar!

 

1939 LYRIC THEATRE New York PHOTO
$5.83
1939 LYRIC THEATRE New York PHOTO picture


Star Spangled Banner or Marines Hymn lyrics signed by WWII Charles W. Lindberg
$10.0
Star Spangled Banner or Marines Hymn lyrics signed by WWII Charles W. Lindberg picture


OLD LARGE HISTORIC PHOTO OF THE LYRIC THEATRE, SYDNEY c1930s, WAR BONDS BOOTH
$7.42
OLD LARGE HISTORIC PHOTO OF THE LYRIC THEATRE, SYDNEY c1930s, WAR BONDS BOOTH picture


SONG OF REVOLUTION CARD SET WITH 13 MOST FAVORED COMMUNIST SONGS LYRICS + NOTES
$24.99
SONG OF REVOLUTION CARD SET WITH 13 MOST FAVORED COMMUNIST SONGS LYRICS + NOTES picture


OLD LARGE HISTORIC PHOTO OF THE LYRIC THEATRE, SYDNEY c1930s, WAR LOANS BOOTH
$7.42
OLD LARGE HISTORIC PHOTO OF THE LYRIC THEATRE, SYDNEY c1930s, WAR LOANS BOOTH picture