Your One-Stop Source For
Music Lyrics
Bass and Guitar Tabs
and More...
Music Lyrics Bass and Guitar Tabs

 

The Tabs Are Below

Learn To Read Tab
Chords Handbook
Corrections & Additions
Get Official Tab
Weezer tabs @ 911Tabs

Song-Slob

Album-Maladroit

Written by-Rivers Cuomo

Tabbed by-Andy Ulseth, vcv75@yahoo.com

 

 

 

Here is my rendition of the weezer song "Slob". Im pretty sure its pretty acurate.

Just play and see for yourself.

 

Guitar #1 plays the tab

And guitar #2 plays the chords above.

 

 

Intro-

Dm

e------------------------

b---------6--------------

g--7---------7---7-------

d----7---------7---------

a------5-----------------

E------------------------ Play 4x

 

 

 

Verse-

Dm A

e---------------------------------------------------------------------------------

b---------6---------------6------------------5---------------5--------------------

g--7---------7---7--7--------7---7----6--------6---6---6--------6---6-------------

d----7---------7------7--------7--------7--------7-------7--------7---------------

a------5----------------5-----------------7----------------7----------------------

E---------------------------------------------------------------------------------

Leave... Me Alone... I wont...

A# Dm

e----------------------------------------------------------------------------------

b---------6---------------6----------------6--------------6------------------------

g-----------7---7-----------7---7---7--------7---7--7-------7---7------------------

d--8----------8----8----------8-------7--------7------7-------7--------------------

a----8---------------8------------------5---------------5--------------------------

E------6---------------6-----------------------------------------------------------

Pick... Up the Phone... And I...

 

 

Pre Chorus-

F5 C5 A#5

e-----------------------------------------------------------------

b-----------------------------------------------------------------

g--10---------------5---------------------------------------------

d--10---------------5--------------------8------------------------

a--8----------------3--------------------8------------------------

E----------------------------------------6------------------------

Wont... Listen to... Messages... Sent by...

F5 C5 A#5

e-----------------------------------------------------------------

b-----------------------------------------------------------------

g-----10-----------------5----------------------------------------

d-----10-----------------5-------------------8--------------------

a-----8------------------3-------------------8--------------------

E--------------------------------------------6--------------------

Someone... Who calls Up... And says...

F5 C5 A#5

e-----------------------------------------------------------------

b-----------------------------------------------------------------

g-----10-------------------------5--------------------------------

d-----10-------------------------5------------------8-------------

a-----8--------------------------3------------------8-------------

E---------------------------------------------------6-------------

I dont like... How your living... My life...

 

 

 

Chorus-

A5 A#5

e-----------------------------------------------------------------

b-----------------------------------------------------------------

g-----------------------------------------------------------------

d-----------------7-----------------------8-----------------------

a-----------------7-----------------------8-----------------------

E-----------------5-----------------------6-----------------------

Get yourself a wife... Get yourself a job... Your livin' a

C5 Dm

e-----------------------------------------------------------------

b---------------------6-------------------------------------------

g----5----------------7-------------------------------------------

d----5----------------7-------------------------------------------

a----3----------------5-------------------------------------------

E---------------------5-------------------------------------------

Dream... Dont you be a slob...

 

 

Dm A5

e-----------------------------------------------------------------

b-----6-----------------------------------------------------------

g-----7-----------------------------------------------------------

d-----7---------------------7-------------------------------------

a-----5---------------------7-------------------------------------

E-----5---------------------5-------------------------------------

Slob... Slob... Slob... Slob...

 

 

Verse #2-

Dm A

e------------------------------------------------------------------------------------

b---------6--------------6----------------5--------------5---------------------------

g--7--------7---7--7-------7---7---6--------6---6--6-------6---6---------------------

d----7--------7------7-------7-------7--------7------7-------7-----------------------

a------5---------------5---------------7---------------7-----------------------------

E------------------------------------------------------------------------------------

Leave... Me Again... Don't hang out...

A#

e---------------------------------------------

b----------------6-----------------6----------

g------------------7---7-------------7---7----

d---------8----------8------8----------8------

a-----------8-----------------8---------------

e-------------6-----------------6-------------

In my Den...

Pre-Chorus

F5 C5 A#5

e------------------------------------------------------------------

b------------------------------------------------------------------

g-------10---------------------5-----------------------------------

d-------10---------------------5---------------8-------------------

a-------8----------------------3---------------8-------------------

E----------------------------------------------6-------------------

Waiting for... Little Clues... To appear...

F5 C5 A#5

e------------------------------------------------------------------

b------------------------------------------------------------------

g-------10---------------5-----------------------------------------

d-------10---------------5------------------8----------------------

a-------8----------------3------------------8----------------------

E-------------------------------------------6----------------------

That I drank... Some of... Granddaddy's Beer...

F5 C5 A#5

e------------------------------------------------------------------

b------------------------------------------------------------------

g--------10------------------5-------------------------------------

d--------10------------------5--------------------8----------------

a--------8-------------------3--------------------8----------------

E-------------------------------------------------6----------------

I don't like... How you're living... My Life...

 

 

Chorus-

A5 A#5

e------------------------------------------------------------------

b------------------------------------------------------------------

g------------------------------------------------------------------

d--------------7----------------------------8----------------------

a--------------7----------------------------8----------------------

E--------------5----------------------------6----------------------

Get yourself a wife... Get yourself a job...

C5 Dm

e------------------------------------------------------------------

b---------------------------------------------6--------------------

g--------------------5------------------------7--------------------

d--------------------5------------------------7--------------------

a--------------------3------------------------5--------------------

E---------------------------------------------5--------------------

You're livin' a dream... Dont you be a Slob...

Dm A5

e------------------------------------------------------------------

b----6-------------------------------------------------------------

g----7-------------------------------------------------------------

d----7-----------------------7-------------------------------------

a----5-----------------------7-------------------------------------

E----5-----------------------5-------------------------------------

Slob... Slob... Slob... Slob...

 

 

Solo-

Dm A A# Dm

e-10--9-8--8-8-5-8-5-8^r-5-------------

b--------------------------8^-6--------

g-------------------------------7------

d--------------------------------------

a--------------------------------------

E--------------------------------------

 

 

Pre Chorus-

F5 C5 A#5

e-------------------------------------------------------------------

b-------------------------------------------------------------------

g--------10----------------5----------------------------------------

d--------10----------------5-------------8--------------------------

a--------8-----------------3-------------8--------------------------

E----------------------------------------6--------------------------

Waiting for... Little Clues... To Appear

F5 C5 A#5

e-------------------------------------------------------------------

b-------------------------------------------------------------------

g---------10-----------------5--------------------------------------

d---------10-----------------5-------------8------------------------

a---------8------------------3-------------8------------------------

E------------------------------------------6------------------------

That I drank... Some of Granddaddy's beer

F5 C5 A#5

e-------------------------------------------------------------------

b-------------------------------------------------------------------

g----------10-----------------5-------------------------------------

d----------10-----------------5--------------8----------------------

a----------8------------------3--------------8----------------------

E--------------------------------------------6----------------------

I dont like... How your living... my life...

 

 

Chorus-

A5 A#5

e-------------------------------------------------------------------

b-------------------------------------------------------------------

g-------------------------------------------------------------------

d-------------------7---------------------8-------------------------

a-------------------7---------------------8-------------------------

E-------------------5---------------------6-------------------------

Get yourself a wife... Get yourself a job... Your livin' a...

C5 Dm

e-------------------------------------------------------------------

b------------------------------6------------------------------------

g---5--------------------------7------------------------------------

d---5--------------------------7------------------------------------

a---3--------------------------5------------------------------------

E------------------------------5------------------------------------

Dream... Dont you be a slob...

 

 

Outro-

Dm

e-------------------

b--------6----------

g--7-------7---7----

d----7-------7------ Repeat many many times.

a------5------------

E-------------------

 

 

Any Questions or comments just email me.

 

 

Enjoy!,

Andy

Return to my to my Weezer tabs page

The Tablature is Copyright its respective owners.

Sign Up For My Newsletter
Subscribe | Unsubscribe

Site Map | Disclaimer | Privacy Policy | Media Kit | Submissions/Corrections

Website © 2000-2014 mattsmusicpage.com. All rights reserved.

Legal & DMCA: Matt's Music Page has been providing lyrics and tabs in a legal way, paying royalties each year to a few organizations. Then, all lyrics and tabs were removed from the site. Now, there's a new owner to the site, which purchased it August 26, 2014, and he is in negotiation to obtain licensing from BMI at the moment. If you have a specific DMCA request -- please do not hesitate to contact me via the contact button on top. I will do my very best to keep this site fully legal.

Get our toolbar!