Your One-Stop Source For
Music Lyrics
Bass and Guitar Tabs
and More...
Music Lyrics Bass and Guitar Tabs

 

The Tabs Are Below

Learn To Read Tab
Chords Handbook
Corrections & Additions
Get Official Tab
Weezer tabs @ 911Tabs

SLAVE

Cuomo

 

Tabbed by Alex Vance, Dunrobin, Ontario, Canada

 

**this is a more complete tab to "Slave" than the one you have up, I based

it on the version recorded as part of ALBUM 4. Play the solo along with the

song to get it right. So..enjoy, I suppose.**

 

Standard E tuning.

 

 

 

INTRO

 

 

e-------0-------------2-----------------------------

b----------------------2----------7-----------9-----

g---------6---------------------7----7-------9---9--

d------7-----------4---------7------------9---------

a----7-----------4--------5------------7------------

e--5----------2-------------------------------------

 

 

VERSE:

 

D B A E

Love, barely a-live, in your arms, slave

 

 

 

CHORUS

 

 

D A

Who put on your heart

 

 

D C# D

...I can't change, no..

 

 

 

BRIDGE

 

B E C# F#

And my girl will say goodbye, to the things we never tried

 

 

SOLO

 

 

e--------------------------------------------------------------/14-14-14-14-12-10-9--9-9--/14-14-14-14-12-10-9--9h-10-9-7-5--5-5h-7-5---

b--/10-9-7--(7)h-10-9-7--/14-14-14-14h-15-12h-14-12-10h-12-10---------------------------------------------------------------------------

g---------------------------------------------------------------------------------------------------------------------------------------

d---------------------------------------------------------------------------------------------------------------------------------------

a---------------------------------------------------------------------------------------------------------------------------------------

e---------------------------------------------------------------------------------------------------------------------------------------

 

 

OUTRO

 

D B D B A G

Love, barely a-live, love, barely a-live, sla-ve

 

Return to my to my Weezer tabs page

The Tablature is Copyright its respective owners.

Sign Up For My Newsletter
Subscribe | Unsubscribe

Site Map | Disclaimer | Privacy Policy | Media Kit | Submissions/Corrections

Website © 2000-2014 mattsmusicpage.com. All rights reserved.

Legal & DMCA: Matt's Music Page has been providing lyrics and tabs in a legal way, paying royalties each year to a few organizations. Then, all lyrics and tabs were removed from the site. Now, there's a new owner to the site, which purchased it August 26, 2014, and he is in negotiation to obtain licensing from BMI at the moment. If you have a specific DMCA request -- please do not hesitate to contact me via the contact button on top. I will do my very best to keep this site fully legal.

Get our toolbar!

 

Hard Rock Pin Las Vegas 4th of july red white and blue guitar
$5.0
Hard Rock Pin Las Vegas 4th of july red white and blue guitar picture


Hard Rock Pin Hollywood Fl Bell Girl with dice luggage and guitar
$5.0
Hard Rock Pin Hollywood Fl Bell Girl with dice luggage and guitar picture


Hard Rock Pin Las Vegas King of Clubs Guitar rare only 3 lines of info on back
$5.0
Hard Rock Pin Las Vegas King of Clubs Guitar rare only 3 lines of info on back picture


Hard Rock Pin Edmonton guitar pin
$5.0
Hard Rock Pin Edmonton guitar pin picture


Lladro Guitar Boy #4614 - Beautiful Piece of Lladro
$109.0
Lladro Guitar Boy #4614 - Beautiful Piece of Lladro picture