Your One-Stop Source For
Music Lyrics
Bass and Guitar Tabs
and More...
Music Lyrics Bass and Guitar Tabs

 

The Tabs Are Below

Learn To Read Tab
Chords Handbook
Corrections & Additions
Get Official Tab
Weezer tabs @ 911Tabs

Weezer - Simple Pages

Tabbed by: Evil Adam (KurtCobain38@hotmail.com)

 

[This was created with TabIt for Windows version 1.53]

 

E :----------------|----------------|----------------|

B :----------------|----------------|----------------|

G :----------------|----------------|----------------|

D :4-4-4-4-4-4-4-4-|4-4-4-4-4-4-4-4-|2-2-2-2-2-2-2-2-|

A :4-4-4-4-4-4-4-4-|4-4-4-4-4-4-4-4-|2-2-2-2-2-2-2-2-|

E :2-2-2-2-2-2-2-2-|2-2-2-2-2-2-2-2-|0-0-0-0-0-0-0-0-|

 

E :----------------|----------------|----------------|

B :--------7-7-7-7-|--7---7---7-8-5-|----------------|

G :----------------|----------------|----------------|

D :--------4-4-4-4-|--4---4---4-5-2-|----------------|

A :----------------|----------------|----------------|

E :----------------|----------------|----------------|

 

G :----------------|----------------|----------------|

D :----------------|----------------|----------------|

A :----------------|----------------|----------------|

E :2-2-2-2-2-2-2-2-|2-2-2-2-2-2-2-2-|0-0-0-0-0-0-0-0-|

 

=============================================================================

 

E :------------------|----------------|----------------|

B :------------------|----------------|----------------|

G :------------------|2-2-2-2-2-2-2-2-|----------------|

D :2-2-2-2--2-2--2-2-|2-2-2-2-2-2-2-2-|2-2-2-2-2-2-2-2-|

A :2-2-2-2--2-2--2-2-|0-0-0-0-0-0-0-0-|2-2-2-2-2-2-2-2-|

E :0-0-0-0--0-0--0-0-|----------------|0-0-0-0-0-0-0-0-|

 

E :------------------|----------------|----------------|

B :--9-----10---12---|*---------------|----------------|

G :------------------|----------------|----------------|

D :--6------7----9---|*---------------|----------------|

A :------------------|----------------|----------------|

E :------------------|----------------|----------------|

 

G :------------------|----------------|----------------|

D :------------------|----------------|----------------|

A :------------------|0-0-0-0-0-0-0-0-|----------------|

E :0-0-0-0--0-0--0-0-|----------------|0-0-0-0-0-0-0-0-|

 

=============================================================================

 

E :----------------|----------------|----------------|----------------|

B :----------------|----------------|----------------|----------------|

G :----------------|7-7-7-7-7-7-7-7-|2-2-2-2-2-2-2-2-|----------------|

D :4-4-4-4-4-4-4-4-|7-7-7-7-7-7-7-7-|2-2-2-2-2-2-2-2-|2-2-2-2-2-2-2-2-|

A :4-4-4-4-4-4-4-4-|5-5-5-5-5-5-5-5-|0-0-0-0-0-0-0-0-|2-2-2-2-2-2-2-2-|

E :2-2-2-2-2-2-2-2-|----------------|----------------|0-0-0-0-0-0-0-0-|

 

E :----------------|----------------|----------------|----------------|

B :----------------|----------------|----------------|----------------|

G :----------------|----------------|----------------|----------------|

D :----------------|----------------|----------------|----------------|

A :----------------|----------------|----------------|----------------|

E :----------------|----------------|----------------|----------------|

 

G :----------------|----------------|----------------|----------------|

D :----------------|----------------|----------------|----------------|

A :----------------|5-5-5-5-5-5-5-5-|0-0-0-0-0-0-0-0-|----------------|

E :2-2-2-2-2-2-2-2-|----------------|----------------|0-0-0-0-0-0-0-0-|

 

=============================================================================

 

E :----------------|----------------|----------------|----------------|

B :----------------|----------------|----------------|----------------|

G :----------------|7-7-7-7-7-7-7-7-|6-6-6-6-6-6-6-6-|----------------|

D :4-4-4-4-4-4-4-4-|7-7-7-7-7-7-7-7-|6-6-6-6-6-6-6-6-|4-4-4-4-4-4-4-4-|

A :4-4-4-4-4-4-4-4-|5-5-5-5-5-5-5-5-|4-4-4-4-4-4-4-4-|4-4-4-4-4-4-4-4-|

E :2-2-2-2-2-2-2-2-|----------------|----------------|2-2-2-2-2-2-2-2-|

 

E :----------------|----------------|----------------|----------------|

B :----------------|----------------|----------------|----------------|

G :----------------|----------------|----------------|----------9-9-9-|

D :----------------|----------------|----------------|----------------|

A :----------------|----------------|----------------|----------7-7-7-|

E :----------------|----------------|----------------|----------------|

 

G :----------------|----------------|----------------|----------------|

D :----------------|----------------|----------------|----------------|

A :----------------|5-5-5-5-5-5-5-5-|4-4-4-4-4-4-4-4-|----------------|

E :2-2-2-2-2-2-2-2-|----------------|----------------|2-2-2-2-2-2-2-2-|

 

=============================================================================

 

E :-----------------|----------------|----------------|----------------|

B :-----------------|----------------|----------------|----------------|

G :-7-7-7-7-7-7-7-7-|----------------|2-2-2-2-2-2-2-2-|----------------|

D :-7-7-7-7-7-7-7-7-|2-2-2-2-2-2-2-2-|2-2-2-2-2-2-2-2-|2-2-2-2-2-2-2-2-|

A :-5-5-5-5-5-5-5-5-|2-2-2-2-2-2-2-2-|0-0-0-0-0-0-0-0-|2-2-2-2-2-2-2-2-|

E :-----------------|0-0-0-0-0-0-0-0-|----------------|0-0-0-0-0-0-0-0-|

 

E :-----------------|----------------|----------------|----------------|

B :-----------------|----------------|----------------|----------------|

G :11---------------|*---------------|----------------|----------------|

D :-----------------|----------------|----------------|----------------|

A :-9---------------|*---------------|----------------|----------------|

E :-----------------|----------------|----------------|----------------|

 

G :-----------------|----------------|----------------|----------------|

D :-----------------|----------------|----------------|----------------|

A :-5-5-5-5-5-5-5-5-|----------------|0-0-0-0-0-0-0-0-|----------------|

E :-----------------|0-0-0-0-0-0-0-0-|----------------|0-0-0-0-0-0-0-0-|

 

=============================================================================

 

E :----------------|------------------------|----------------|

B :----------------|------------------------|----------------|

G :7-7-7-7-7-7-7-7-|-7--7--7--6--6--6--4--4-|2-2-2-2-2-2-2-2-|

D :7-7-7-7-7-7-7-7-|-7--7--7--6--6--6--4--4-|2-2-2-2-2-2-2-2-|

A :5-5-5-5-5-5-5-5-|-5--5--5--4--4--4--2--2-|0-0-0-0-0-0-0-0-|

E :----------------|------------------------|----------------|

 

E :----------------|------------------------|----------------|

B :----------------|------------------------|----------------|

G :----------------|11-11-11-11-11-11-11-11-|*---------------|

D :----------------|------------------------|----------------|

A :----------------|-9--9--9--9--9--9--9--9-|*---------------|

E :----------------|------------------------|----------------|

 

G :----------------|------------------------|----------------|

D :----------------|------------------------|----------------|

A :5-5-5-5-5-5-5-5-|-5--5--5--4--4--4--2--2-|0-0-0-0-0-0-0-0-|

E :----------------|------------------------|----------------|

 

=============================================================================

 

E :----------------|----------------|----------------|----------------|

B :----------------|----------------|----------------|----------------|

G :----------------|----------------|7-7-7-7-7-7-7-7-|2-2-2-2-2-2-2-2-|

D :2-2-2-2-2-2-2-2-|4-4-4-4-4-4-4-4-|7-7-7-7-7-7-7-7-|2-2-2-2-2-2-2-2-|

A :2-2-2-2-2-2-2-2-|4-4-4-4-4-4-4-4-|5-5-5-5-5-5-5-5-|0-0-0-0-0-0-0-0-|

E :0-0-0-0-0-0-0-0-|2-2-2-2-2-2-2-2-|----------------|----------------|

 

E :----------------|----------------|----------------|----------------|

B :----------------|----------------|----------------|----------------|

G :----------------|----------------|----------------|----------------|

D :----------------|----------------|----------------|----------------|

A :----------------|----------------|----------------|----------------|

E :----------------|----------------|----------------|----------------|

 

G :----------------|----------------|----------------|----------------|

D :----------------|----------------|----------------|----------------|

A :----------------|----------------|5-5-5-5-5-5-5-5-|0-0-0-0-0-0-0-0-|

E :0-0-0-0-0-0-0-0-|2-2-2-2-2-2-2-2-|----------------|----------------|

 

=============================================================================

 

E :----------------|----------------|----------------|----------------|

B :----------------|----------------|----------------|----------------|

G :----------------|----------------|7-7-7-7-7-7-7-7-|6-6-6-6-6-6-6-6-|

D :2-2-2-2-2-2-2-2-|4-4-4-4-4-4-4-4-|7-7-7-7-7-7-7-7-|6-6-6-6-6-6-6-6-|

A :2-2-2-2-2-2-2-2-|4-4-4-4-4-4-4-4-|5-5-5-5-5-5-5-5-|4-4-4-4-4-4-4-4-|

E :0-0-0-0-0-0-0-0-|2-2-2-2-2-2-2-2-|----------------|----------------|

 

E :----------------|----------------|----------------|----------------|

B :----------------|----------------|----------------|----------------|

G :----------------|----------------|----------------|----------------|

D :----------------|----------------|----------------|----------------|

A :----------------|----------------|----------------|----------------|

E :----------------|----------------|----------------|----------------|

 

G :----------------|----------------|----------------|----------------|

D :----------------|----------------|----------------|----------------|

A :----------------|----------------|5-5-5-5-5-5-5-5-|4-4-4-4-4-4-4-4-|

E :0-0-0-0-0-0-0-0-|2-2-2-2-2-2-2-2-|----------------|----------------|

 

=============================================================================

 

E :----------------|-----------------|----------------|----------------|

B :----------------|-----------------|----------------|----------------|

G :----------------|-7-7-7-7-7-7-7-7-|----------------|2-2-2-2-2-2-2-2-|

D :4-4-4-4-4-4-4-4-|-7-7-7-7-7-7-7-7-|2-2-2-2-2-2-2-2-|2-2-2-2-2-2-2-2-|

A :4-4-4-4-4-4-4-4-|-5-5-5-5-5-5-5-5-|2-2-2-2-2-2-2-2-|0-0-0-0-0-0-0-0-|

E :2-2-2-2-2-2-2-2-|-----------------|0-0-0-0-0-0-0-0-|----------------|

 

E :----------------|-----------------|----------------|----------------|

B :----------------|-----------------|----------------|----------------|

G :----------9-9-9-|11---------------|*---------------|----------------|

D :----------------|-----------------|----------------|----------------|

A :----------7-7-7-|-9---------------|*---------------|----------------|

E :----------------|-----------------|----------------|----------------|

 

G :----------------|-----------------|----------------|----------------|

D :----------------|-----------------|----------------|----------------|

A :----------------|-5-5-5-5-5-5-5-5-|----------------|0-0-0-0-0-0-0-0-|

E :2-2-2-2-2-2-2-2-|-----------------|0-0-0-0-0-0-0-0-|----------------|

 

=============================================================================

 

E :----------------|----------------|------------------------|

B :----------------|----------------|------------------------|

G :----------------|7-7-7-7-7-7-7-7-|-7--7--7--6--6--6--4--4-|

D :2-2-2-2-2-2-2-2-|7-7-7-7-7-7-7-7-|-7--7--7--6--6--6--4--4-|

A :2-2-2-2-2-2-2-2-|5-5-5-5-5-5-5-5-|-5--5--5--4--4--4--2--2-|

E :0-0-0-0-0-0-0-0-|----------------|------------------------|

 

E :----------------|----------------|------------------------|

B :----------------|----------------|------------------------|

G :----------------|----------------|11-11-11-11-11-11-11-11-|

D :----------------|----------------|------------------------|

A :----------------|----------------|-9--9--9--9--9--9--9--9-|

E :----------------|----------------|------------------------|

 

G :----------------|----------------|------------------------|

D :----------------|----------------|------------------------|

A :----------------|5-5-5-5-5-5-5-5-|-5--5--5--4--4--4--2--2-|

E :0-0-0-0-0-0-0-0-|----------------|------------------------|

 

=============================================================================

 

E :----------------|----------------|----------------|----------------|

B :----------------|----------------|----------------|----------------|

G :----------------|----------------|----------------|----------------|

D :4-4-4-4-4-4-4-4-|4-4-4-4-4-4-4-4-|2-2-2-2-2-2-2-2-|2-2-2-2-2-2-2-2-|

A :4-4-4-4-4-4-4-4-|4-4-4-4-4-4-4-4-|2-2-2-2-2-2-2-2-|2-2-2-2-2-2-2-2-|

E :2-2-2-2-2-2-2-2-|2-2-2-2-2-2-2-2-|0-0-0-0-0-0-0-0-|0-0-0-0-0-0-0-0-|

 

E :----------------|----------------|----------------|----------------|

B :----------------|----------------|----------------|----------------|

G :*---------------|----------------|----------------|----------------|

D :----------------|----------------|----------------|----------------|

A :*---------------|----------------|----------------|----------------|

E :----------------|----------------|----------------|----------------|

 

G :----------------|----------------|----------------|----------------|

D :----------------|----------------|----------------|----------------|

A :----------------|----------------|----------------|----------------|

E :2-2-2-2-2-2-2-2-|2-2-2-2-2-2-2-2-|0-0-0-0-0-0-0-0-|0-0-0-0-0-0-0-0-|

 

=============================================================================

 

E :-----------------------------|--------------------------|

B :-----------------------------|--------------------------|

G :-2--2--2--2-----2--2--2--2---|--------------------------|

D :-2--2--2--2-----2--2--2--2---|-2--2--2--2----2--2--2--2-|

A :-0--0--0--0-----0--0--0--0---|-2--2--2--2----2--2--2--2-|

E :-----------------------------|-0--0--0--0----0--0--0--0-|

 

E :-----------------------------|--------------------------|

B :-----------------------------|--------------------------|

G :14-14-14-14-14-14-14-14-14-14|13-13-13-11-13---13-13-13-|

D :-----------------------------|--------------------------|

A :12-12-12-12-12-12-12-12-12-12|11-11-11--9-11---11-11-11-|

E :-----------------------------|--------------------------|

 

G :-----------------------------|--------------------------|

D :-----------------------------|--------------------------|

A :-0--0--0--0-----0--0--0--0---|--------------------------|

E :-----------------------------|-0--0--0--0----0--0--0--0-|

 

=============================================================================

 

E :-----------------------------|-----------------------------|

B :-----------------------------|-----------------------------|

G :-----------------------------|-7--7--7--7-----7--7--7--7---|

D :-4--4--4--4-----4--4--4--4---|-7--7--7--7-----7--7--7--7---|

A :-4--4--4--4-----4--4--4--4---|-5--5--5--5-----5--5--5--5---|

E :-2--2--2--2-----2--2--2--2---|-----------------------------|

 

E :-----------------------------|-----------------------------|

B :-----------------------------|-----------------------------|

G :14-14-14-14-14-14-14-14-14-14|14-14-14-14-14-14-14-14-14-14|

D :-----------------------------|-----------------------------|

A :12-12-12-12-12-12-12-12-12-12|12-12-12-12-12-12-12-12-12-12|

E :-----------------------------|-----------------------------|

 

G :-----------------------------|-----------------------------|

D :-----------------------------|-----------------------------|

A :-----------------------------|-5--5--5--5-----5--5--5--5---|

E :-2--2--2--2-----2--2--2--2---|-----------------------------|

 

=============================================================================

 

E :-----------------------------|--------------------------|

B :-----------------------------|--------------------------|

G :-2--2--2--2-----2--2--2--2---|--------------------------|

D :-2--2--2--2-----2--2--2--2---|-2--2--2--2----2--2--2--2-|

A :-0--0--0--0-----0--0--0--0---|-2--2--2--2----2--2--2--2-|

E :-----------------------------|-0--0--0--0----0--0--0--0-|

 

E :-----------------------------|--------------------------|

B :-----------------------------|--------------------------|

G :14-14-14-14-14-14-14-14-14-14|13-13-13-11-13---13-13-13-|

D :-----------------------------|--------------------------|

A :12-12-12-12-12-12-12-12-12-12|11-11-11--9-11---11-11-11-|

E :-----------------------------|--------------------------|

 

G :-----------------------------|--------------------------|

D :-----------------------------|--------------------------|

A :-0--0--0--0-----0--0--0--0---|--------------------------|

E :-----------------------------|-0--0--0--0----0--0--0--0-|

 

=============================================================================

 

E :-----------------------------|-----------------------------|

B :-----------------------------|-----------------------------|

G :-----------------------------|-7--7--7--7-----7--7--7--7---|

D :-4--4--4--4-----4--4--4--4---|-7--7--7--7-----7--7--7--7---|

A :-4--4--4--4-----4--4--4--4---|-5--5--5--5-----5--5--5--5---|

E :-2--2--2--2-----2--2--2--2---|-----------------------------|

 

E :-----------------------------|-----------------------------|

B :-----------------------------|-----------------------------|

G :14-14-14-14-14-14-14-14-14-14|14-14-14-14-14-14-14-14-14-14|

D :-----------------------------|-----------------------------|

A :12-12-12-12-12-12-12-12-12-12|12-12-12-12-12-12-12-12-12-12|

E :-----------------------------|-----------------------------|

 

G :-----------------------------|-----------------------------|

D :-----------------------------|-----------------------------|

A :-----------------------------|-5--5--5--5-----5--5--5--5---|

E :-2--2--2--2-----2--2--2--2---|-----------------------------|

 

=============================================================================

 

E :-----------------|----------------|-----------------|

B :-----------------|----------------|-----------------|

G :-6-6-6-6-6-6-6-6-|----------------|-7-7-7-7-7-7-7-7-|

D :-6-6-6-6-6-6-6-6-|4-4-4-4-4-4-4-4-|-7-7-7-7-7-7-7-7-|

A :-4-4-4-4-4-4-4-4-|4-4-4-4-4-4-4-4-|-5-5-5-5-5-5-5-5-|

E :-----------------|2-2-2-2-2-2-2-2-|-----------------|

 

E :-----------------|----------------|-----------------|

B :-----------------|----------------|-----------------|

G :13---------------|*---------9-9-9-|11---------------|

D :-----------------|----------------|-----------------|

A :11---------------|*---------7-7-7-|-9---------------|

E :-----------------|----------------|-----------------|

 

G :-----------------|----------------|-----------------|

D :-----------------|----------------|-----------------|

A :-4-4-4-4-4-4-4-4-|----------------|-5-5-5-5-5-5-5-5-|

E :-----------------|2-2-2-2-2-2-2-2-|-----------------|

 

=============================================================================

 

E :----------------|----------------|----------------|----------------|

B :----------------|----------------|----------------|----------------|

G :----------------|2-2-2-2-2-2-2-2-|----------------|7-7-7-7-7-7-7-7-|

D :2-2-2-2-2-2-2-2-|2-2-2-2-2-2-2-2-|2-2-2-2-2-2-2-2-|7-7-7-7-7-7-7-7-|

A :2-2-2-2-2-2-2-2-|0-0-0-0-0-0-0-0-|2-2-2-2-2-2-2-2-|5-5-5-5-5-5-5-5-|

E :0-0-0-0-0-0-0-0-|----------------|0-0-0-0-0-0-0-0-|----------------|

 

E :----------------|----------------|----------------|----------------|

B :----------------|----------------|----------------|----------------|

G :*---------------|----------------|----------------|----------------|

D :----------------|----------------|----------------|----------------|

A :*---------------|----------------|----------------|----------------|

E :----------------|----------------|----------------|----------------|

 

G :----------------|----------------|----------------|----------------|

D :----------------|----------------|----------------|----------------|

A :----------------|0-0-0-0-0-0-0-0-|----------------|5-5-5-5-5-5-5-5-|

E :0-0-0-0-0-0-0-0-|----------------|0-0-0-0-0-0-0-0-|----------------|

 

=============================================================================

 

E :------------------------|----------------|----------------|

B :------------------------|----------------|----------------|

G :-7--7--7--6--6--6--4--4-|2-2-2-2-2-2-2-2-|----------------|

D :-7--7--7--6--6--6--4--4-|2-2-2-2-2-2-2-2-|2-2-2-2-2-2-2-2-|

A :-5--5--5--4--4--4--2--2-|0-0-0-0-0-0-0-0-|2-2-2-2-2-2-2-2-|

E :------------------------|----------------|0-0-0-0-0-0-0-0-|

 

E :------------------------|----------------|----------------|

B :------------------------|----------------|----------------|

G :11-11-11-11-11-11-11-11-|*---------------|----------------|

D :------------------------|----------------|----------------|

A :-9--9--9--9--9--9--9--9-|*---------------|----------------|

E :------------------------|----------------|----------------|

 

G :------------------------|----------------|----------------|

D :------------------------|----------------|----------------|

A :-5--5--5--4--4--4--2--2-|0-0-0-0-0-0-0-0-|----------------|

E :------------------------|----------------|0-0-0-0-0-0-0-0-|

 

=============================================================================

 

E :----------------|----------------|---------------------------------|

B :----------------|----------------|---------------------------------|

G :----------------|7-7-7-7-7-7-7-7-|-2-----2--2--2-----2--2--2-----2-|

D :4-4-4-4-4-4-4-4-|7-7-7-7-7-7-7-7-|-2-----2--2--2-----2--2--2-----2-|

A :4-4-4-4-4-4-4-4-|5-5-5-5-5-5-5-5-|-0-----0--0--0-----0--0--0-----0-|

E :2-2-2-2-2-2-2-2-|----------------|---------------------------------|

 

E :----------------|----------------|---------------------------------|

B :----------------|----------------|---------------------------------|

G :----------------|----------------|14-14-14-14-14-14-14-14-14-14-14-|

D :----------------|----------------|---------------------------------|

A :----------------|----------------|12-12-12-12-12-12-12-12-12-12-12-|

E :----------------|----------------|---------------------------------|

 

G :----------------|----------------|---------------------------------|

D :----------------|----------------|---------------------------------|

A :----------------|5-5-5-5-5-5-5-5-|-0-----0--0--0-----0--0--0-----0-|

E :2-2-2-2-2-2-2-2-|----------------|---------------------------------|

 

=============================================================================

 

E :--------------------------|---------------------------------|

B :--------------------------|---------------------------------|

G :--------------------------|---------------------------------|

D :-2--2--2--2----2--2--2--2-|-4-----4--4--4-----4--4--4-----4-|

A :-2--2--2--2----2--2--2--2-|-4-----4--4--4-----4--4--4-----4-|

E :-0--0--0--0----0--0--0--0-|-2-----2--2--2-----2--2--2-----2-|

 

E :--------------------------|---------------------------------|

B :--------------------------|---------------------------------|

G :13-13-13-11-13---13-13-13-|14-14-14-14-14-14-14-14-14-14-14-|

D :--------------------------|---------------------------------|

A :11-11-11--9-11---11-11-12-|12-12-12-12-12-12-12-12-12-12-12-|

E :--------------------------|---------------------------------|

 

G :--------------------------|---------------------------------|

D :--------------------------|---------------------------------|

A :--------------------------|---------------------------------|

E :-0--0--0--0----0--0--0--0-|-2-----2--2--2-----2--2--2-----2-|

 

=============================================================================

 

E :--------------------------|---------------------------------|

B :--------------------------|---------------------------------|

G :-7--7--7--7----7--7--7--7-|-2-----2--2--2-----2--2--2-----2-|

D :-7--7--7--7----7--7--7--7-|-2-----2--2--2-----2--2--2-----2-|

A :-5--5--5--5----5--5--5--5-|-0-----0--0--0-----0--0--0-----0-|

E :--------------------------|---------------------------------|

 

E :--------------------------|---------------------------------|

B :--------------------------|---------------------------------|

G :14-14-14-14-14---14-14-14-|14-14-14-14-14-14-14-14-14-14-14-|

D :--------------------------|---------------------------------|

A :12-12-12-12-12---12-12-12-|12-12-12-12-12-12-12-12-12-12-12-|

E :--------------------------|---------------------------------|

 

G :--------------------------|---------------------------------|

D :--------------------------|---------------------------------|

A :-5--5--5--5----5--5--5--5-|-0-----0--0--0-----0--0--0-----0-|

E :--------------------------|---------------------------------|

 

=============================================================================

 

E :--------------------------|---------------------------------|

B :--------------------------|---------------------------------|

G :--------------------------|---------------------------------|

D :-2--2--2--2----2--2--2--2-|-4-----4--4--4-----4--4--4-----4-|

A :-2--2--2--2----2--2--2--2-|-4-----4--4--4-----4--4--4-----4-|

E :-0--0--0--0----0--0--0--0-|-2-----2--2--2-----2--2--2-----2-|

 

E :--------------------------|---------------------------------|

B :--------------------------|---------------------------------|

G :13-13-13-11-13---13-13-13-|14-14-14-14-14-14-14-14-14-14-14-|

D :--------------------------|---------------------------------|

A :11-11-11--9-11---11-11-12-|12-12-12-12-12-12-12-12-12-12-12-|

E :--------------------------|---------------------------------|

 

G :--------------------------|---------------------------------|

D :--------------------------|---------------------------------|

A :--------------------------|---------------------------------|

E :-0--0--0--0----0--0--0--0-|-2-----2--2--2-----2--2--2-----2-|

 

=============================================================================

 

E :--------------------------|---------------------------------|

B :--------------------------|---------------------------------|

G :-7--7--7--7----7--7--7--7-|-2-----2--2--2-----2--2--2-----2-|

D :-7--7--7--7----7--7--7--7-|-2-----2--2--2-----2--2--2-----2-|

A :-5--5--5--5----5--5--5--5-|-0-----0--0--0-----0--0--0-----0-|

E :--------------------------|---------------------------------|

 

E :--------------------------|---------------------------------|

B :--------------------------|---------------------------------|

G :14-14-14-14-14---14-14-14-|14-14-14-14-14-14-14-14-14-14-14-|

D :--------------------------|---------------------------------|

A :12-12-12-12-12---12-12-12-|12-12-12-12-12-12-12-12-12-12-12-|

E :--------------------------|---------------------------------|

 

G :--------------------------|---------------------------------|

D :--------------------------|---------------------------------|

A :-5--5--5--5----5--5--5--5-|-0-----0--0--0-----0--0--0-----0-|

E :--------------------------|---------------------------------|

 

=============================================================================

 

E :--------------------------|---------------------------------|

B :--------------------------|---------------------------------|

G :--------------------------|---------------------------------|

D :-2--2--2--2----2--2--2--2-|-4-----4--4--4-----4--4--4-----4-|

A :-2--2--2--2----2--2--2--2-|-4-----4--4--4-----4--4--4-----4-|

E :-0--0--0--0----0--0--0--0-|-2-----2--2--2-----2--2--2-----2-|

 

E :--------------------------|---------------------------------|

B :--------------------------|---------------------------------|

G :13-13-13-11-13---13-13-13-|14-14-14-14-14-14-14-14-14-14-14-|

D :--------------------------|---------------------------------|

A :11-11-11--9-11---11-11-12-|12-12-12-12-12-12-12-12-12-12-12-|

E :--------------------------|---------------------------------|

 

G :--------------------------|---------------------------------|

D :--------------------------|---------------------------------|

A :--------------------------|---------------------------------|

E :-0--0--0--0----0--0--0--0-|-2-----2--2--2-----2--2--2-----2-|

 

=============================================================================

 

E :--------------------------|-----------------|----------------|

B :--------------------------|-----------------|----------------|

G :-7--7--7--7----7--7--7--7-|-2---------------|----------------|

D :-7--7--7--7----7--7--7--7-|-2---------------|----------------|

A :-5--5--5--5----5--5--5--5-|-0---------------|----------------|

E :--------------------------|-----------------|----------------|

 

E :--------------------------|-----------------|----------------|

B :--------------------------|-----------------|----------------|

G :14-14-14-14-14---14-14-14-|14---------------|----------------|

D :--------------------------|-----------------|----------------|

A :12-12-12-12-12---12-12-12-|12---------------|----------------|

E :--------------------------|-----------------|----------------|

 

G :--------------------------|-----------------|----------------|

D :--------------------------|-----------------|----------------|

A :-5--5--5--5----5--5--5--5-|-0---------------|----------------|

E :--------------------------|-----------------|----------------|

 

=============================================================================

 

E :----------------|

B :----------------|

G :*---------------|

D :*---------------|

A :*---------------|

E :----------------|

 

E :----------------|

B :----------------|

G :*---------------|

D :----------------|

A :*---------------|

E :----------------|

 

G :----------------|

D :----------------|

A :*---------------|

E :----------------|

 

 

Return to my to my Weezer tabs page

The Tablature is Copyright its respective owners.

Sign Up For My Newsletter
Subscribe | Unsubscribe

Site Map | Disclaimer | Privacy Policy | Media Kit | Submissions/Corrections

Website © 2000-2014 mattsmusicpage.com. All rights reserved.

Legal & DMCA: Matt's Music Page has been providing lyrics and tabs in a legal way, paying royalties each year to a few organizations. Then, all lyrics and tabs were removed from the site. Now, there's a new owner to the site, which purchased it August 26, 2014, and he is in negotiation to obtain licensing from BMI at the moment. If you have a specific DMCA request -- please do not hesitate to contact me via the contact button on top. I will do my very best to keep this site fully legal.

Get our toolbar!