Your One-Stop Source For
Music Lyrics
Bass and Guitar Tabs
and More...
Music Lyrics Bass and Guitar Tabs

 

The Tabs Are Below

Learn To Read Tab
Chords Handbook
Corrections & Additions
Get Official Tab
Weezer tabs @ 911Tabs

 

Weezer

Say It Ain't So

1/2 Step Down

 

 

7)Say it Ain't So

 

C#m G#(add #5) A E

---------4------------------------5----4-------------------------------

-4h5-----5--4--------0------------5----5-------------------------------

-4h6-6---6--5------5---5----------6----4-------------------------------

-4h6-6---6--6-6--6--------6/7-7---7----6-------------------------------

-4-4-4------6-6-----------6/7-7--------7-------------------------------

------------4-4-----------4/5-5----------------------------------------

 

C#m G#

Somebody's heine

A E

is crowding my ice box

C#m G#

Somebody's cold one

A E

is givin' me chills

C#m G# A E

Guess I'll just close my eyes

 

w/intro

Oh yeah. All right. Feels good inside

 

 

Flip on the tele

Wrestle with Jimmy

Something is bubbling

Behind my back

The bottle is ready the blow

 

 

 

C# C#* G# G#* A A E5 * In the later parts of the song

Say it ain't so this bit is added in this area

C# C#* G# G#* A A E5 B --------------

Your drug is a heart breaker G ---7b9-7b9----

C# C#* G# G#* A A E5 D --------------

Say it ain't so

C# C# G# G# A E

Your drug is a heartbreaker

C# C# G# G# A A E5

Say it ain't so

C# C# G# G# A A E

My love is a life taker

 

I can't confront you

I never could do

That which might hurt you

So try and be cool

When I say

This way is a waterslide away from me that takes you further every day

So be cool

 

Chorus

 

B

Dear Daddy,

B/Bb

I write you

E G

in spite of years of silence

 

You've cleaned up

found Jesus

Things are looking good or so I hear

This bottle of Steven's

awakens ancient feelings

Like father, stepfather

The son is drowning in the flood

 

 

-15b-15-12-11-9-11-9-9b11-9-7---15b-15-12-11-9-11-9-11\7--9b-9b--------

------------------------------9----------------------------------------

-----------------------------------------------------------------------

-----------------------------------------------------------------------

-----------------------------------------------------------------------

-----------------------------------------------------------------------

 

------12--16-14h16p14-12--------12--16-14-12-----------12-16-14-12-----

12/14---------------------12/14--------------14--12/14-------------14--

-----------------------------------------------------------------------

-----------------------------------------------------------------------

-----------------------------------------------------------------------

-----------------------------------------------------------------------

 

-16--16b17b16-14h16----------------------------------------------------

-----------------------------------------------------------------------

-----------------------------------------------------------------------

-----------------------------------------------------------------------

-----------------------------------------------------------------------

-----------------------------------------------------------------------

 

 

 

 

Tabbed by TNitz303@aol.com

 

 

Return to my to my Weezer tabs page

The Tablature is Copyright its respective owners.

Sign Up For My Newsletter
Subscribe | Unsubscribe

Site Map | Disclaimer | Privacy Policy | Media Kit | Submissions/Corrections

Website © 2000-2014 mattsmusicpage.com. All rights reserved.

Legal & DMCA: Matt's Music Page has been providing lyrics and tabs in a legal way, paying royalties each year to a few organizations. Then, all lyrics and tabs were removed from the site. Now, there's a new owner to the site, which purchased it August 26, 2014, and he is in negotiation to obtain licensing from BMI at the moment. If you have a specific DMCA request -- please do not hesitate to contact me via the contact button on top. I will do my very best to keep this site fully legal.

Get our toolbar!

 

Starbucks You Are Here Coffee Mug/Cup KENTUCKY - Horses, Banjo, Blue, White
$19.99
Starbucks You Are Here Coffee Mug/Cup KENTUCKY - Horses, Banjo, Blue, White picture


KNOWLES ROCKWELL HERITAGE "THE BANJO PLAYER" FIRST EDITION 1989 PLATE COA
$5.99
KNOWLES ROCKWELL HERITAGE


Vintage Postcard 1981 Disney World Banjo Kings Main Street USA 1981 Postmark
$4.99
 Vintage Postcard 1981 Disney World Banjo Kings Main Street USA 1981 Postmark picture


Banjo Barometer With Thermometer Hygrometer 490mm
$84.76
Banjo Barometer With Thermometer Hygrometer 490mm picture


ANTIQUE JAPANESE NIPPON FIGURINE SET OF 3 WOMEN GEISHA PLAYING DRUM BANJO FAN
$24.0
ANTIQUE JAPANESE NIPPON FIGURINE SET OF 3 WOMEN GEISHA PLAYING DRUM BANJO FAN picture