Your One-Stop Source For
Music Lyrics
Bass and Guitar Tabs
and More...
>Music Lyrics Bass and Guitar Tabs

 

The Tabs Are Below

Learn To Read Tab
Chords Handbook
Corrections & Additions
Get Official Tab
Weezer tabs @ 911Tabs

Possibilities" - Weezer

tabbed by Mikey O'Leary (dorksport@aol.com)

tuned in Eb

 

intro/bridge

Eb|-----------------

Bb|-----------------

Gb|--9-9-9-9-9-9-8--

Db|--9-9-9-9-9-9-8--

Ab|--7-9-7-9-7-9-6--

Eb|----7---7---7----

 

verse

Eb|------------------

Bb|------------------

Gb|----8-10-6---6-8--

Db|--6-8-10-6-6-6-8--

Ab|--6-6--8-4-6-4-6--

Eb|--4--------4------

 

chorus

Eb|-----------

Bb|-----------

Gb|-----------

Db|--3-5-6-8--

Ab|--3-5-6-8--

Eb|--1-3-4-6--

 

solo

Eb|--------------------4-4-3-3-1---------9-7-5-3-5-3--

Bb|------------------------------4-1------------------

Gb|--5-3-1-6-5-8-6-5-1---------------3-1-5-3-1-0-1-0--

Db|---------------------------------------------------

Ab|---------------------------------------------------

Eb|---------------------------------------------------

 

outro (guitar 1)

Eb|--------------------------

Bb|--------------------------

Gb|----8---8----10--------6--

Db|--6-8-8-8-10-10-10-8-6-6--

Ab|--6-6-8-6-10--8-10-8-6-4--

Eb|--4---6----8-----8-6-4----

 

outro (guitar 2)

Eb|--------------------------------------

Bb|--------------------------------------

Gb|----8---8----10-13-12-10-12-10-12-13--

Db|--6-8-8-8-10-10-----------------------

Ab|--6-6-8-6-10--8-11-10-8--10--8-10-11--

Eb|--4---6----8--------------------------

 

lyrics

oo-oo

 

oh...oh...possibilities.

waiting home with me in your arms.

i never thought that i'd do that.

take me all the way.

and let your body stay.

 

 

Return to my to my Weezer tabs page

The Tablature is Copyright its respective owners.

Sign Up For My Newsletter
Subscribe | Unsubscribe

Site Map | Disclaimer | Privacy Policy | Media Kit | Submissions/Corrections

Website © 2000-2014 mattsmusicpage.com. All rights reserved.

Legal & DMCA: Matt's Music Page has been providing lyrics and tabs in a legal way, paying royalties each year to a few organizations. Then, all lyrics and tabs were removed from the site. Now, there's a new owner to the site, which purchased it August 26, 2014, and he is in negotiation to obtain licensing from BMI at the moment. If you have a specific DMCA request -- please do not hesitate to contact me via the contact button on top. I will do my very best to keep this site fully legal.

Get our toolbar!

 

Tube 8ea 12L6 GT 1NIB tstd amp radio amplifier ham
$9.95
Tube 8ea 12L6 GT  1NIB  tstd amp radio amplifier ham picture


Tube 1ea type 6Q7G Wards tstd VG amp radio amplifier ham
$9.95
Tube 1ea type 6Q7G Wards  tstd VG amp radio amplifier ham picture


Tube 7ea 12AL5 1NIB tstd amp radio amplifier ham
$9.95
Tube 7ea 12AL5 1NIB    tstd amp radio amplifier ham picture


Vintage Radio miniature Similary Record Player made in Hong Kong Amplifier Sy#4
$9.0
Vintage Radio miniature Similary  Record Player made in Hong Kong Amplifier Sy#4 picture


1962 Fisher KX-100 StrataKit integrated amplifier kit magazine print Ad
$6.99
1962 Fisher KX-100 StrataKit integrated amplifier kit magazine print Ad picture