Your One-Stop Source For
Music Lyrics
Bass and Guitar Tabs
and More...
Music Lyrics Bass and Guitar Tabs

 

The Tabs Are Below

Learn To Read Tab
Chords Handbook
Corrections & Additions
Get Official Tab
Weezer tabs @ 911Tabs

O Lisa

 

[This was created with TabIt for Windows version 1.57]

 

E :----------------|----------------|----------------|----------------|

B :----------------|----------------|----------------|----------------|

G :----------------|3---3---3---3-3-|2-2-2-2-2-2-2-2-|7---7---7---7-7-|

D :----------------|3---3---3---3-3-|2-2-2-2-2-2-2-2-|7---7---7---7-7-|

A :----------------|1---1---1---1-1-|0-0-0-0-0-0-0-0-|5---5---5---5-5-|

E :----------------|----------------|----------------|----------------|

 

E :----------------|----------------|----------------|----------------|

B :----------------|----------------|----------------|----------------|

G :----------------|--------7-7---6-|--6---6---6---7-|----------------|

D :----------------|----------------|----------------|----------------|

A :----------------|----------------|----------------|----------------|

E :----------------|----------------|----------------|----------------|

 

G :----------------|----------------|----------------|----------------|

D :----------------|----------------|----------------|----------------|

A :----------------|1---1---1---1-1-|0-0-0-0-0-0-0-0-|5---5---5---5-5-|

E :----------------|----------------|----------------|----------------|

 

=============================================================================

 

E :----------------|----------------|----------------|----------------|

B :----------------|----------------|----------------|----------------|

G :7-7-7-7-7-7-7-7-|7---7-7-7-7-7-7-|6---6-6-6-6-6-6-|5---5-5-5-5-5-5-|

D :7-7-7-7-7-7-7-7-|7---7-7-7-7-7-7-|6---6-6-6-6-6-6-|5---5-5-5-5-5-5-|

A :5-5-5-5-5-5-5-5-|5---5-5-5-5-5-5-|4---4-4-4-4-4-4-|3---3-3-3-3-3-3-|

E :----------------|----------------|----------------|----------------|

 

E :----------------|----------------|----------------|----------------|

B :----------------|----------------|----------------|----------------|

G :----------------|*---------------|----------------|----------------|

D :----------------|----------------|----------------|----------------|

A :----------------|----------------|----------------|----------------|

E :----------------|----------------|----------------|----------------|

 

G :----------------|----------------|----------------|----------------|

D :----------------|----------------|----------------|----------------|

A :5-5-5-5-5-5-5-5-|5---5-5-5-5-5-5-|4---4-4-4-4-4-4-|3---3-3-3-3-3-3-|

E :----------------|----------------|----------------|----------------|

 

=============================================================================

 

E :----------------|----------------|----------------|----------------|

B :----------------|----------------|----------------|----------------|

G :4---4-4-4-4-4-4-|3---3-3-3-3-3-3-|2---2-2-2-2-2-2-|3---3-3-3-3-3-3-|

D :4---4-4-4-4-4-4-|3---3-3-3-3-3-3-|2---2-2-2-2-2-2-|3---3-3-3-3-3-3-|

A :2---2-2-2-2-2-2-|1---1-1-1-1-1-1-|0---0-0-0-0-0-0-|1---1-1-1-1-1-1-|

E :----------------|----------------|----------------|----------------|

 

E :----------------|----------------|----------------|----------------|

B :----------------|----------------|----------------|----------------|

G :----------------|----------------|----------------|----------------|

D :----------------|----------------|----------------|----------------|

A :----------------|----------------|----------------|----------------|

E :----------------|----------------|----------------|----------------|

 

G :----------------|----------------|----------------|----------------|

D :----------------|----------------|----------------|----------------|

A :2---2-2-2-2-2-2-|1---1-1-1-1-1-1-|0---0-0-0-0-0-0-|1---1-1-1-1-1-1-|

E :----------------|----------------|----------------|----------------|

 

=============================================================================

 

E :----------------|----------------|----------------|----------------|

B :----------------|----------------|----------------|----------------|

G :----------------|7---7-7-7-7-7-7-|6---6-6-6-6-6-6-|5---5-5-5-5-5-5-|

D :5---5-5-5-5-5-5-|7---7-7-7-7-7-7-|6---6-6-6-6-6-6-|5---5-5-5-5-5-5-|

A :5---5-5-5-5-5-5-|5---5-5-5-5-5-5-|4---4-4-4-4-4-4-|3---3-3-3-3-3-3-|

E :3---3-3-3-3-3-3-|----------------|----------------|----------------|

 

E :----------------|----------------|----------------|----------------|

B :----------------|----------------|----------------|----------------|

G :----------------|----------------|----------------|----------------|

D :----------------|----------------|----------------|----------------|

A :----------------|----------------|----------------|----------------|

E :----------------|----------------|----------------|----------------|

 

G :----------------|----------------|----------------|----------------|

D :----------------|----------------|----------------|----------------|

A :----------------|5---5-5-5-5-5-5-|4---4-4-4-4-4-4-|3---3-3-3-3-3-3-|

E :3---3-3-3-3-3-3-|----------------|----------------|----------------|

 

=============================================================================

 

E :----------------|----------------|----------------|----------------|

B :----------------|----------------|----------------|----------------|

G :4---4-4-4-4-4-4-|3---3-3-3-3-3-3-|2---2-2-2-2-2-2-|3---3-3-3-3-3-3-|

D :4---4-4-4-4-4-4-|3---3-3-3-3-3-3-|2---2-2-2-2-2-2-|3---3-3-3-3-3-3-|

A :2---2-2-2-2-2-2-|1---1-1-1-1-1-1-|0---0-0-0-0-0-0-|1---1-1-1-1-1-1-|

E :----------------|----------------|----------------|----------------|

 

E :----------------|----------------|----------------|----------------|

B :----------------|----------------|----------------|----------------|

G :----------------|----------------|----------------|----------------|

D :----------------|----------------|----------------|----------------|

A :----------------|----------------|----------------|----------------|

E :----------------|----------------|----------------|----------------|

 

G :----------------|----------------|----------------|----------------|

D :----------------|----------------|----------------|----------------|

A :2---2-2-2-2-2-2-|1---1-1-1-1-1-1-|0---0-0-0-0-0-0-|1---1-1-1-1-1-1-|

E :----------------|----------------|----------------|----------------|

 

=============================================================================

 

E :----------------|----------------|----------------|----------------|

B :----------------|----------------|----------------|----------------|

G :----------------|7---7-7-7-7-7-7-|7-7-7-7-7-7-7-7-|5---5-5-5-5-5-5-|

D :5---5-5-5-5-5-5-|7---7-7-7-7-7-7-|7-7-7-7-7-7-7-7-|5---5-5-5-5-5-5-|

A :5---5-5-5-5-5-5-|5---5-5-5-5-5-5-|5-5-5-5-5-5-5-5-|3---3-3-3-3-3-3-|

E :3---3-3-3-3-3-3-|----------------|----------------|----------------|

 

E :----------------|----------------|----------------|----------------|

B :----------------|----------------|----------------|----------------|

G :----------------|----------------|----------------|----------------|

D :----------------|----------------|----------------|----------------|

A :----------------|----------------|----------------|----------------|

E :----------------|----------------|----------------|----------------|

 

G :----------------|----------------|----------------|----------------|

D :----------------|----------------|----------------|----------------|

A :----------------|5---5-5-5-5-5-5-|5-5-5-5-5-5-5-5-|3---3-3-3-3-3-3-|

E :3---3-3-3-3-3-3-|----------------|----------------|----------------|

 

=============================================================================

 

E :----------------|----------------|----------------|----------------|

B :----------------|----------------|----------------|----------------|

G :5-5-5-5-5-5-5-5-|7-7-7-7-7-7-7-7-|7-7-7-7-7-7-7-7-|5-5-5-5-5-5-5-5-|

D :5-5-5-5-5-5-5-5-|7-7-7-7-7-7-7-7-|7-7-7-7-7-7-7-7-|5-5-5-5-5-5-5-5-|

A :3-3-3-3-3-3-3-3-|5-5-5-5-5-5-5-5-|5-5-5-5-5-5-5-5-|3-3-3-3-3-3-3-3-|

E :----------------|----------------|----------------|----------------|

 

E :----------------|----------------|----------------|----------------|

B :----------------|----------------|----------------|----------------|

G :----------------|----------------|----------------|----------------|

D :----------------|----------------|----------------|----------------|

A :----------------|----------------|----------------|----------------|

E :----------------|----------------|----------------|----------------|

 

G :----------------|----------------|----------------|----------------|

D :----------------|----------------|----------------|----------------|

A :3-3-3-3-3-3-3-3-|5-5-5-5-5-5-5-5-|5-5-5-5-5-5-5-5-|3---3-3-3-3-3-3-|

E :----------------|----------------|----------------|----------------|

 

=============================================================================

 

E :----------------|----------------|----------------|----------------|

B :----------------|----------------|----------------|----------------|

G :5-5-5-5-5-5-5-5-|3---3-3-3-3-3-3-|2---2-2-2-2-2-2-|7---7-7-7-7-7-7-|

D :5-5-5-5-5-5-5-5-|3---3-3-3-3-3-3-|2---2-2-2-2-2-2-|7---7-7-7-7-7-7-|

A :3-3-3-3-3-3-3-3-|1---1-1-1-1-1-1-|0---0-0-0-0-0-0-|5---5-5-5-5-5-5-|

E :----------------|----------------|----------------|----------------|

 

E :----------------|----------------|----------------|----------------|

B :----------------|----------------|----------------|----------------|

G :----------------|----------------|----------------|----------------|

D :----------------|----------------|----------------|----------------|

A :----------------|----------------|----------------|----------------|

E :----------------|----------------|----------------|----------------|

 

G :----------------|----------------|----------------|----------------|

D :------2-3-2-----|----------------|----------------|--------4-5-4---|

A :3-3-3-------3-0-|1---1-1-1-1-1-1-|0---0-0-0-0-0-0-|5---5-5-------5-|

E :----------------|----------------|----------------|----------------|

 

=============================================================================

 

E :----------------|----------------|----------------|----------------|

B :----------------|----------------|----------------|----------------|

G :7-7-7-7-7-7-7-7-|7---7-7-7-7-7-7-|6---6-6-6-6-6-6-|5---5-5-5-5-5-5-|

D :7-7-7-7-7-7-7-7-|7---7-7-7-7-7-7-|6---6-6-6-6-6-6-|5---5-5-5-5-5-5-|

A :5-5-5-5-5-5-5-5-|5---5-5-5-5-5-5-|4---4-4-4-4-4-4-|3---3-3-3-3-3-3-|

E :----------------|----------------|----------------|----------------|

 

E :----------------|----------------|----------------|----------------|

B :----------------|----------------|----------------|----------------|

G :----------------|----------------|----------------|----------------|

D :----------------|----------------|----------------|----------------|

A :----------------|----------------|----------------|----------------|

E :----------------|----------------|----------------|----------------|

 

G :----------------|----------------|----------------|----------------|

D :----------------|----------------|----------------|----------------|

A :--5-5-5-5-5-5-5-|5---5-5-5-5-5-5-|4---4-4-4-4-4-4-|3---3-3-3-3-3-3-|

E :----------------|----------------|----------------|----------------|

 

=============================================================================

 

E :----------------|----------------|----------------|----------------|

B :----------------|----------------|----------------|----------------|

G :4---4-4-4-4-4-4-|3---3-3-3-3-3-3-|2---2-2-2-2-2-2-|3---3-3-3-3-3-3-|

D :4---4-4-4-4-4-4-|3---3-3-3-3-3-3-|2---2-2-2-2-2-2-|3---3-3-3-3-3-3-|

A :2---2-2-2-2-2-2-|1---1-1-1-1-1-1-|0---0-0-0-0-0-0-|1---1-1-1-1-1-1-|

E :----------------|----------------|----------------|----------------|

 

E :----------------|----------------|----------------|----------------|

B :----------------|----------------|----------------|----------------|

G :----------------|----------------|----------------|----------------|

D :----------------|----------------|----------------|----------------|

A :----------------|----------------|----------------|----------------|

E :----------------|----------------|----------------|----------------|

 

G :----------------|----------------|----------------|----------------|

D :----------------|----------------|----------------|----------------|

A :2---2-2-2-2-2-2-|1---1-1-1-1-1-1-|0---0-0-0-0-0-0-|1---1-1-1-1-1-1-|

E :----------------|----------------|----------------|----------------|

 

=============================================================================

 

E :----------------|----------------|----------------|----------------|

B :----------------|----------------|----------------|----------------|

G :----------------|7---7-7-7-7-7-7-|6---6-6-6-6-6-6-|5---5-5-5-5-5-5-|

D :5---5-5-5-5-5-5-|7---7-7-7-7-7-7-|6---6-6-6-6-6-6-|5---5-5-5-5-5-5-|

A :5---5-5-5-5-5-5-|5---5-5-5-5-5-5-|4---4-4-4-4-4-4-|3---3-3-3-3-3-3-|

E :3---3-3-3-3-3-3-|----------------|----------------|----------------|

 

E :----------------|----------------|----------------|----------------|

B :----------------|----------------|----------------|----------------|

G :----------------|----------------|----------------|----------------|

D :----------------|----------------|----------------|----------------|

A :----------------|----------------|----------------|----------------|

E :----------------|----------------|----------------|----------------|

 

G :----------------|----------------|----------------|----------------|

D :----------------|----------------|----------------|----------------|

A :----------------|5---5-5-5-5-5-5-|4---4-4-4-4-4-4-|3---3-3-3-3-3-3-|

E :3---3-3-3-3-3-3-|----------------|----------------|----------------|

 

=============================================================================

 

E :----------------|----------------|----------------|----------------|

B :----------------|----------------|----------------|----------------|

G :4---4-4-4-4-4-4-|3---3-3-3-3-3-3-|2---2-2-2-2-2-2-|3---3-3-3-3-3-3-|

D :4---4-4-4-4-4-4-|3---3-3-3-3-3-3-|2---2-2-2-2-2-2-|3---3-3-3-3-3-3-|

A :2---2-2-2-2-2-2-|1---1-1-1-1-1-1-|0---0-0-0-0-0-0-|1---1-1-1-1-1-1-|

E :----------------|----------------|----------------|----------------|

 

E :----------------|----------------|----------------|----------------|

B :----------------|----------------|----------------|----------------|

G :----------------|----------------|----------------|----------------|

D :----------------|----------------|----------------|----------------|

A :----------------|----------------|----------------|----------------|

E :----------------|----------------|----------------|----------------|

 

G :----------------|----------------|----------------|----------------|

D :----------------|----------------|----------------|----------------|

A :2---2-2-2-2-2-2-|1---1-1-1-1-1-1-|0---0-0-0-0-0-0-|1---1-1-1-1-1-1-|

E :----------------|----------------|----------------|----------------|

 

=============================================================================

 

E :----------------|----------------|----------------|----------------|

B :----------------|----------------|----------------|----------------|

G :----------------|7---7-7-7-7-7-7-|7-7-7-7-7-7-7-7-|5---5-5-5-5-5-5-|

D :5---5-5-5-5-5-5-|7---7-7-7-7-7-7-|7-7-7-7-7-7-7-7-|5---5-5-5-5-5-5-|

A :5---5-5-5-5-5-5-|5---5-5-5-5-5-5-|5-5-5-5-5-5-5-5-|3---3-3-3-3-3-3-|

E :3---3-3-3-3-3-3-|----------------|----------------|----------------|

 

E :----------------|----------------|----------------|----------------|

B :----------------|----------------|----------------|----------------|

G :----------------|----------------|----------------|----------------|

D :----------------|----------------|----------------|----------------|

A :----------------|----------------|----------------|----------------|

E :----------------|----------------|----------------|----------------|

 

G :----------------|----------------|----------------|----------------|

D :----------------|----------------|----------------|----------------|

A :----------------|5---5-5-5-5-5-5-|5-5-5-5-5-5-5-5-|3---3-3-3-3-3-3-|

E :3---3-3-3-3-3-3-|----------------|----------------|----------------|

 

=============================================================================

 

E :----------------|----------------|----------------|----------------|

B :----------------|----------------|----------------|----------------|

G :5-5-5-5-5-5-5-5-|7---7-7-7-7-7-7-|7-7-7-7-7-7-7-7-|5---5-5-5-5-5-5-|

D :5-5-5-5-5-5-5-5-|7---7-7-7-7-7-7-|7-7-7-7-7-7-7-7-|5---5-5-5-5-5-5-|

A :3-3-3-3-3-3-3-3-|5---5-5-5-5-5-5-|5-5-5-5-5-5-5-5-|3---3-3-3-3-3-3-|

E :----------------|----------------|----------------|----------------|

 

E :----------------|----------------|----------------|----------------|

B :----------------|----------------|----------------|----------------|

G :----------------|----------------|----------------|----------------|

D :----------------|----------------|----------------|----------------|

A :----------------|----------------|----------------|----------------|

E :----------------|----------------|----------------|----------------|

 

G :----------------|----------------|----------------|----------------|

D :----------------|----------------|----------------|----------------|

A :3-3-3-3-3-3-3-3-|5---5-5-5-5-5-5-|5-5-5-5-5-5-5-5-|3---3-3-3-3-3-3-|

E :----------------|----------------|----------------|----------------|

 

=============================================================================

 

E :----------------|----------------|----------------|----------------|

B :----------------|----------------|----------------|----------------|

G :5-5-5-5-5-5-5-5-|3---3-3-3-3-3-3-|2---2-2-2-2-2-2-|7---7-7-7-7-7-7-|

D :5-5-5-5-5-5-5-5-|3---3-3-3-3-3-3-|2---2-2-2-2-2-2-|7---7-7-7-7-7-7-|

A :3-3-3-3-3-3-3-3-|1---1-1-1-1-1-1-|0---0-0-0-0-0-0-|5---5-5-5-5-5-5-|

E :----------------|----------------|----------------|----------------|

 

E :----------------|----------------|----------------|----------------|

B :----------------|----------------|----------------|----------------|

G :----------------|----------------|----------------|----------------|

D :----------------|----------------|----------------|----------------|

A :----------------|----------------|----------------|----------------|

E :----------------|----------------|----------------|----------------|

 

G :----------------|----------------|----------------|----------------|

D :------2-3-2-----|----------------|----------------|--------4-5-4---|

A :3-3-3-------3-0-|1---1-1-1-1-1-1-|0---0-0-0-0-0-0-|5---5-5-------5-|

E :----------------|----------------|----------------|----------------|

 

=============================================================================

 

E :----------------|----------------|----------------|----------------|

B :----------------|----------------|----------------|----------------|

G :7-7-7-7-7-7-7-7-|3---3-3-3-3-3-3-|2---2-2-2-2-2-2-|7---7-7-7-7-7-7-|

D :7-7-7-7-7-7-7-7-|3---3-3-3-3-3-3-|2---2-2-2-2-2-2-|7---7-7-7-7-7-7-|

A :5-5-5-5-5-5-5-5-|1---1-1-1-1-1-1-|0---0-0-0-0-0-0-|5---5-5-5-5-5-5-|

E :----------------|----------------|----------------|----------------|

 

E :----------------|----------------|----------------|----------------|

B :----------------|----------------|----------------|----------------|

G :----------------|----------------|----------------|----------------|

D :----------------|----------------|----------------|----------------|

A :----------------|----------------|----------------|----------------|

E :----------------|----------------|----------------|----------------|

 

G :----------------|----------------|----------------|----------------|

D :----------------|----------------|----------------|----------------|

A :--5-5-5-5-5-5-5-|1---1-1-1-1-1-1-|0---0-0-0-0-0-0-|5---5-5-5-5-5-5-|

E :----------------|----------------|----------------|----------------|

 

=============================================================================

 

E :----------------|----------------|------------------|

B :----------------|----------------|------------------|

G :7-7-7-7-7-7-7-7-|7---7-7-7-7-7-7-|6---6-6-6--6-6--6-|

D :7-7-7-7-7-7-7-7-|7---7-7-7-7-7-7-|6---6-6-6--6-6--6-|

A :5-5-5-5-5-5-5-5-|5---5-5-5-5-5-5-|4---4-4-4--4-4--4-|

E :----------------|----------------|------------------|

 

E :----------------|----------------|------------------|

B :----------------|----------------|------------------|

G :----------------|----------------|------------------|

D :----------------|--------7-7---7-|--7---9---11---12-|

A :----------------|----------------|------------------|

E :----------------|----------------|------------------|

 

G :----------------|----------------|------------------|

D :----------------|----------------|------------------|

A :--5-5-5-5-5-5-5-|5---5-5-5-5-5-5-|4---4-4-4--4-4--4-|

E :----------------|----------------|------------------|

 

=============================================================================

 

E :-------------------|-------------------------|----------------|

B :-------------------|-------------------------|----------------|

G :5---5-5--5--5-5--5-|4----4---4--4---4--4--4--|3---3-3-3-3-3-3-|

D :5---5-5--5--5-5--5-|4----4---4--4---4--4--4--|3---3-3-3-3-3-3-|

A :3---3-3--3--3-3--3-|2----2---2--2---2--2--2--|1---1-1-1-1-1-1-|

E :-------------------|-------------------------|----------------|

 

E :-------------------|-------------------------|----------------|

B :-------------------|-------------------------|----------------|

G :-------------------|-------(10)---(10)---(7)-|----------------|

D :--------12-12---12-|--12-----9------7-----8--|--------------8-|

A :-------------------|-------------------------|----------------|

E :-------------------|-------------------------|----------------|

 

G :-------------------|-------------------------|----------------|

D :-------------------|-------------------------|----------------|

A :3---3-3--3--3-3--3-|2----2---2--2---2--2--2--|1---1-1-1-1-1-1-|

E :-------------------|-------------------------|----------------|

 

=============================================================================

 

E :------------------|--------------------|-------------------------|

B :------------------|--------------------|-------------------------|

G :-2----2-2-2-2-2-2-|-3----3-3-3-3-3--3--|-------------------------|

D :-2----2-2-2-2-2-2-|-3----3-3-3-3-3--3--|-5------5---5--5--5--5-5-|

A :-0----0-0-0-0-0-0-|-1----1-1-1-1-1--1--|-5------5---5--5--5--5-5-|

E :------------------|--------------------|-3------3---3--3--3--3-3-|

 

E :------------------|--------------------|-------------------------|

B :------------------|--------------------|-------------------------|

G :------------------|----------------(6)-|(7)-(6)---(-9)---(7)-----|

D :10-10---7---------|(8)--------------7--|-8---7-----10-----8------|

A :------------------|--------------------|-------------------------|

E :------------------|--------------------|-------------------------|

 

G :------------------|--------------------|-------------------------|

D :------------------|--------------------|-------------------------|

A :-0----0-0-0-0-0-0-|-1----1-1-1-1-1--1--|-------------------------|

E :------------------|--------------------|-3------3---3--3--3--3-3-|

 

=============================================================================

 

E :----------------|------------------|-------------------|

B :----------------|------------------|-------------------|

G :7---7-7-7-7-7-7-|6---6-6-6--6-6--6-|5---5-5--5--5-5--5-|

D :7---7-7-7-7-7-7-|6---6-6-6--6-6--6-|5---5-5--5--5-5--5-|

A :5---5-5-5-5-5-5-|4---4-4-4--4-4--4-|3---3-3--3--3-3--3-|

E :----------------|------------------|-------------------|

 

E :----------------|------------------|-------------------|

B :----------------|------------------|-------------------|

G :*---------------|------------------|-------------------|

D :*-------7-7---7-|--7---9---11---12-|--------12-12---12-|

A :----------------|------------------|-------------------|

E :----------------|------------------|-------------------|

 

G :----------------|------------------|-------------------|

D :----------------|------------------|-------------------|

A :5---5-5-5-5-5-5-|4---4-4-4--4-4--4-|3---3-3--3--3-3--3-|

E :----------------|------------------|-------------------|

 

=============================================================================

 

E :-------------------------|----------------|------------------|

B :-------------------------|----------------|------------------|

G :4----4---4--4---4--4--4--|3---3-3-3-3-3-3-|-2----2-2-2-2-2-2-|

D :4----4---4--4---4--4--4--|3---3-3-3-3-3-3-|-2----2-2-2-2-2-2-|

A :2----2---2--2---2--2--2--|1---1-1-1-1-1-1-|-0----0-0-0-0-0-0-|

E :-------------------------|----------------|------------------|

 

E :-------------------------|----------------|------------------|

B :-------------------------|----------------|------------------|

G :-------(10)---(10)---(7)-|----------------|------------------|

D :--12-----9------7-----8--|--------------8-|10-10---7---------|

A :-------------------------|----------------|------------------|

E :-------------------------|----------------|------------------|

 

G :-------------------------|----------------|------------------|

D :-------------------------|----------------|------------------|

A :2----2---2--2---2--2--2--|1---1-1-1-1-1-1-|-0----0-0-0-0-0-0-|

E :-------------------------|----------------|------------------|

 

=============================================================================

 

E :--------------------|-------------------------|----------------|

B :--------------------|-------------------------|----------------|

G :-3----3-3-3-3-3--3--|-------------------------|7---7-7-7-7-7-7-|

D :-3----3-3-3-3-3--3--|-5------5---5--5--5--5-5-|7---7-7-7-7-7-7-|

A :-1----1-1-1-1-1--1--|-5------5---5--5--5--5-5-|5---5-5-5-5-5-5-|

E :--------------------|-3------3---3--3--3--3-3-|----------------|

 

E :--------------------|-------------------------|----------------|

B :--------------------|-------------------------|----------------|

G :----------------(6)-|(7)-(6)---(-9)---(7)-----|*---------------|

D :(8)--------------7--|-8---7-----10-----8------|*---------------|

A :--------------------|-------------------------|----------------|

E :--------------------|-------------------------|----------------|

 

G :--------------------|-------------------------|----------------|

D :--------------------|-------------------------|----------------|

A :-1----1-1-1-1-1--1--|-------------------------|5---5-5-5-5-5-5-|

E :--------------------|-3------3---3--3--3--3-3-|----------------|

 

=============================================================================

 

E :----------------|----------------|----------------|----------------|

B :----------------|----------------|----------------|----------------|

G :7-7-7-7-7-7-7-7-|5---5-5-5-5-5-5-|5-5-5-5-5-5-5-5-|7---7-7-7-7-7-7-|

D :7-7-7-7-7-7-7-7-|5---5-5-5-5-5-5-|5-5-5-5-5-5-5-5-|7---7-7-7-7-7-7-|

A :5-5-5-5-5-5-5-5-|3---3-3-3-3-3-3-|3-3-3-3-3-3-3-3-|5---5-5-5-5-5-5-|

E :----------------|----------------|----------------|----------------|

 

E :----------------|----------------|----------------|----------------|

B :----------------|----------------|----------------|----------------|

G :----------------|----------------|----------------|----------------|

D :----------------|----------------|----------------|----------------|

A :----------------|----------------|----------------|----------------|

E :----------------|----------------|----------------|----------------|

 

G :----------------|----------------|----------------|----------------|

D :----------------|----------------|----------------|----------------|

A :5-5-5-5-5-5-5-5-|3---3-3-3-3-3-3-|3-3-3-3-3-3-3-3-|5---5-5-5-5-5-5-|

E :----------------|----------------|----------------|----------------|

 

=============================================================================

 

E :----------------|----------------|----------------|----------------|

B :----------------|----------------|----------------|----------------|

G :7-7-7-7-7-7-7-7-|5---5-5-5-5-5-5-|5-5-5-5-5-5-5-5-|3---3-3-3-3-3-3-|

D :7-7-7-7-7-7-7-7-|5---5-5-5-5-5-5-|5-5-5-5-5-5-5-5-|3---3-3-3-3-3-3-|

A :5-5-5-5-5-5-5-5-|3---3-3-3-3-3-3-|3-3-3-3-3-3-3-3-|1---1-1-1-1-1-1-|

E :----------------|----------------|----------------|----------------|

 

E :----------------|----------------|----------------|----------------|

B :----------------|----------------|----------------|----------------|

G :----------------|----------------|----------------|----------------|

D :----------------|----------------|----------------|----------------|

A :----------------|----------------|----------------|----------------|

E :----------------|----------------|----------------|----------------|

 

G :----------------|----------------|----------------|----------------|

D :----------------|----------------|------2-3-2-----|----------------|

A :5-5-5-5-5-5-5-5-|3---3-3-3-3-3-3-|3-3-3-------3-0-|1---1-1-1-1-1-1-|

E :----------------|----------------|----------------|----------------|

 

=============================================================================

 

E :----------------|----------------|----------------|----------------|

B :----------------|----------------|----------------|----------------|

G :2---2-2-2-2-2-2-|7---7-7-7-7-7-7-|7-7-7-7-7-7-7-7-|7---7-7-7-7-7-7-|

D :2---2-2-2-2-2-2-|7---7-7-7-7-7-7-|7-7-7-7-7-7-7-7-|7---7-7-7-7-7-7-|

A :0---0-0-0-0-0-0-|5---5-5-5-5-5-5-|5-5-5-5-5-5-5-5-|5---5-5-5-5-5-5-|

E :----------------|----------------|----------------|----------------|

 

E :----------------|----------------|----------------|----------------|

B :----------------|----------------|----------------|----------------|

G :----------------|----------------|----------------|----------------|

D :----------------|----------------|----------------|----------------|

A :----------------|----------------|----------------|----------------|

E :----------------|----------------|----------------|----------------|

 

G :----------------|----------------|----------------|----------------|

D :----------------|----------------|----------------|----------------|

A :0---0-0-0-0-0-0-|5---5-5-5-5-5-5-|--5-5-5-5-5-5-5-|5---5-5-5-5-5-5-|

E :----------------|----------------|----------------|----------------|

 

=============================================================================

 

E :----------------|----------------|----------------|----------------|

B :----------------|----------------|----------------|----------------|

G :6---6-6-6-6-6-6-|5---5-5-5-5-5-5-|4---4-4-4-4-4-4-|3---3-3-3-3-3-3-|

D :6---6-6-6-6-6-6-|5---5-5-5-5-5-5-|4---4-4-4-4-4-4-|3---3-3-3-3-3-3-|

A :4---4-4-4-4-4-4-|3---3-3-3-3-3-3-|2---2-2-2-2-2-2-|1---1-1-1-1-1-1-|

E :----------------|----------------|----------------|----------------|

 

E :----------------|----------------|----------------|----------------|

B :----------------|----------------|----------------|----------------|

G :----------------|----------------|----------------|----------------|

D :----------------|----------------|----------------|----------------|

A :----------------|----------------|----------------|----------------|

E :----------------|----------------|----------------|----------------|

 

G :----------------|----------------|----------------|----------------|

D :----------------|----------------|----------------|----------------|

A :4---4-4-4-4-4-4-|3---3-3-3-3-3-3-|2---2-2-2-2-2-2-|1---1-1-1-1-1-1-|

E :----------------|----------------|----------------|----------------|

 

=============================================================================

 

E :----------------|----------------|----------------|----------------|

B :----------------|----------------|----------------|----------------|

G :2---2-2-2-2-2-2-|3---3-3-3-3-3-3-|----------------|7---7-7-7-7-7-7-|

D :2---2-2-2-2-2-2-|3---3-3-3-3-3-3-|5---5-5-5-5-5-5-|7---7-7-7-7-7-7-|

A :0---0-0-0-0-0-0-|1---1-1-1-1-1-1-|5---5-5-5-5-5-5-|5---5-5-5-5-5-5-|

E :----------------|----------------|3---3-3-3-3-3-3-|----------------|

 

E :----------------|----------------|----------------|----------------|

B :----------------|----------------|----------------|----------------|

G :----------------|----------------|----------------|----------------|

D :----------------|----------------|----------------|----------------|

A :----------------|----------------|----------------|----------------|

E :----------------|----------------|----------------|----------------|

 

G :----------------|----------------|----------------|----------------|

D :----------------|----------------|----------------|----------------|

A :0---0-0-0-0-0-0-|1---1-1-1-1-1-1-|----------------|5---5-5-5-5-5-5-|

E :----------------|----------------|3---3-3-3-3-3-3-|----------------|

 

=============================================================================

 

E :----------------|----------------|----------------|----------------|

B :----------------|----------------|----------------|----------------|

G :----------------|7---7-7-7-7-7-7-|----------------|7---7-7-7-7-7-7-|

D :5---5-5-5-5-5-5-|7---7-7-7-7-7-7-|5---5-5-5-5-5-5-|7---7-7-7-7-7-7-|

A :5---5-5-5-5-5-5-|5---5-5-5-5-5-5-|5---5-5-5-5-5-5-|5---5-5-5-5-5-5-|

E :3---3-3-3-3-3-3-|----------------|3---3-3-3-3-3-3-|----------------|

 

E :----------------|----------------|----------------|----------------|

B :----------------|----------------|----------------|----------------|

G :----------------|----------------|----------------|----------------|

D :----------------|----------------|----------------|----------------|

A :----------------|----------------|----------------|----------------|

E :----------------|----------------|----------------|----------------|

 

G :----------------|----------------|----------------|----------------|

D :----------------|----------------|----------------|----------------|

A :----------------|5---5-5-5-5-5-5-|----------------|5---5-5-5-5-5-5-|

E :3---3-3-3-3-3-3-|----------------|3---3-3-3-3-3-3-|----------------|

 

=============================================================================

 

E :----------------|----------------|

B :----------------|----------------|

G :----------------|7---------------|

D :5---5-5-5-5-5-5-|7---------------|

A :5---5-5-5-5-5-5-|5---------------|

E :3---3-3-3-3-3-3-|----------------|

 

E :----------------|----------------|

B :----------------|----------------|

G :----------------|----------------|

D :----------------|----------------|

A :----------------|----------------|

E :----------------|----------------|

 

G :----------------|----------------|

D :----------------|----------------|

A :----------------|5---------------|

E :3---3-3-3-3-3-3-|----------------|

 

 

 

Return to my to my Weezer tabs page

The Tablature is Copyright its respective owners.

Sign Up For My Newsletter
Subscribe | Unsubscribe

Site Map | Disclaimer | Privacy Policy | Media Kit | Submissions/Corrections

Website © 2000-2014 mattsmusicpage.com. All rights reserved.

Legal & DMCA: Matt's Music Page has been providing lyrics and tabs in a legal way, paying royalties each year to a few organizations. Then, all lyrics and tabs were removed from the site. Now, there's a new owner to the site, which purchased it August 26, 2014, and he is in negotiation to obtain licensing from BMI at the moment. If you have a specific DMCA request -- please do not hesitate to contact me via the contact button on top. I will do my very best to keep this site fully legal.

Get our toolbar!

 

VINTAGE SORRENTO MUSIC JEWELRY BOX
$45.0
VINTAGE SORRENTO MUSIC JEWELRY BOX picture


VINTAGE LACQUERED MUSIC BOX JAPAN
$25.99
VINTAGE LACQUERED MUSIC BOX JAPAN picture


Vintage Kehlsteinhaus Bavaria Germany Colorscope Cow Bell View Master Music Box
$8.99
Vintage Kehlsteinhaus Bavaria Germany Colorscope Cow Bell View Master Music Box picture


VINTAGE SCHMIDT Signed Collectible Musical Turning Clown
$9.99
VINTAGE  SCHMIDT Signed Collectible Musical Turning Clown picture


Vintage - Linen - Postcard - Stage - Radio City Music Hall - New York City
$3.75
Vintage - Linen - Postcard - Stage - Radio City Music Hall - New York City   picture