Your One-Stop Source For
Music Lyrics
Bass and Guitar Tabs
and More...
Music Lyrics Bass and Guitar Tabs

 

The Tabs Are Below

Learn To Read Tab
Chords Handbook
Corrections & Additions
Get Official Tab
Weezer tabs @ 911Tabs

O Girlfriend

 

[This was created with TabIt for Windows version 1.53]

 

E :---------------------------|--------------------------|

B :---------------------------|--------------------------|

G :---------------------------|--------------------------|

D :------------11--11-----11--|--\4-----7-----11-----11--|

A :---------------------------|--------------------------|

E :---------------------------|--------------------------|

 

E :---------------------------|--------------------------|

B :2--------------------------|--------------------------|

G :2--------------------------|--------------------------|

D :0--------------------------|--------------------------|

A :---------------------------|--------------------------|

E :---------------------------|--------------------------|

 

G :---------------------------|--------------------------|

D :---------------------------|--------------------------|

A :5-----5------5---5--5------|5-----5-----5---5--5------|

E :---------------------------|--------------------------|

 

49 :---------------------------|--------------------------|

42 :4-(4)-4-(4)--4-(-4)-4-(-4)-|4-(4)-4-(4)-4-(-4)-4-(-4)-|

38 :---------------------------|--------------------------|

38 :---------------------------|--------------------------|

35 :---------------------------|--------------------------|

35 :---------------------------|--------------------------|

 

E :---------------------------|--------------------------|

B :---------------------------|--------------------------|

G :---------------------------|--------------------------|

D :---------------------------|--------------------------|

A :---------------------------|--------------------------|

E :---------------------------|--------------------------|

 

=============================================================================

 

E :---------------------------|------------------------|

B :---------------------------|------------------------|

G :---------------------------|---------------6-----4--|

D :------------11--11-----11--|--\4-----7--------------|

A :---------------------------|------------------------|

E :---------------------------|------------------------|

 

E :---------------------------|------------------------|

B :2--------------------------|------------------------|

G :2--------------------------|------------------------|

D :0--------------------------|------------------------|

A :---------------------------|------------------------|

E :---------------------------|------------------------|

 

G :---------------------------|------------------------|

D :---------------------------|------------------------|

A :5-----5------5---5--5------|5-----5-----5--5--5-----|

E :---------------------------|------------------------|

 

49 :---------------------------|------------------------|

42 :4-(4)-4-(4)--4-(-4)-4-(-4)-|4-(4)-4-(4)-4-(4)-4-(4)-|

38 :---------------------------|------------------------|

38 :---------------------------|------------------------|

35 :---------------------------|------------------------|

35 :---------------------------|------------------------|

 

E :---------------------------|------------------------|

B :---------------------------|------------------------|

G :---------------------------|------------------------|

D :---------------------------|------------------------|

A :---------------------------|------------------------|

E :---------------------------|------------------------|

 

=============================================================================

 

E :------------------------|------------------------|

B :------------------------|------------------------|

G :------------------------|---------5-----4--------|

D :------------------------|------------------------|

A :------------------------|------------------------|

E :------------------------|------------------------|

 

E :------------------------|------------------------|

B :0-----------------------|--------(5)---(3)-------|

G :0-----------------------|------------------------|

D :0-----------------------|------------------------|

A :------------------------|------------------------|

E :3-----------------------|------------------------|

 

G :------------------------|------------------------|

D :------------------------|------------------------|

A :------------------------|------------------------|

E :3-----3-----3--3--3-----|3-----3-----3--3--3--0--|

 

49 :------------------------|------------------------|

42 :4-(4)-4-(4)-4-(4)-4-(4)-|4-(4)-4-(4)-4-(4)-4-(4)-|

38 :------------------------|------------------------|

38 :------------------------|------------------------|

35 :------------------------|------------------------|

35 :------------------------|------------------------|

 

E :------------------------|------------------------|

B :------------------------|------------------------|

G :------------------------|------------------------|

D :------------------------|------------------------|

A :------------------------|------------------------|

E :------------------------|------------------------|

 

=============================================================================

 

E :----------------------------|--------------------------|

B :----------------------------|--------------------------|

G :----------------------------|-------------5-----4------|

D :----------------------------|--------------------------|

A :----------------------------|--------------------------|

E :----------------------------|--------------------------|

 

E :----------------------------|--------------------------|

B :-0--------------------------|------------(5)---(3)-----|

G :-0--------------------------|--------------------------|

D :-0--------------------------|--------------------------|

A :----------------------------|--------------------------|

E :-3--------------------------|--------------------------|

 

G :----------------------------|--------------------------|

D :----------------------------|--------------------------|

A :----------------------------|--------------------------|

E :-3---3---3---3--3--3--3--3--|-3---3---3---3--3--3--3-3-|

 

49 :----------------------------|--------------------------|

42 :-4--(4)--4--(4)-4-(4)-4-(4)-|-4---4---4---4--4--4--4-4-|

38 :----------------------------|----------------------0-0-|

38 :------------------------(0)-|(0)-(0)-(0)--0--0--0--0-0-|

35 :(0)-(0)--0---0--0--0--0--0--|-0---0---0---0--0--0--0-0-|

35 :(0)-(0)-(0)-(0)-0--0--0--0--|-0---0---0---0--0--0--0-0-|

 

E :----------------------------|--------------------------|

B :----------------------------|--------------------------|

G :----------------------------|--------------------------|

D :----------------------------|--------------------------|

A :----------------------------|--------------------------|

E :----------------------------|--------------------------|

 

=============================================================================

 

E :----------------|----------------|----------------|----------------|

B :----------------|----------------|----------------|----------------|

G :2---------------|*---------------|----------------|----------------|

D :----------------|----------------|----------------|----------------|

A :----------------|----------------|----------------|----------------|

E :----------------|----------------|----------------|----------------|

 

E :0---0---0---0---|2---2---2---2---|2---2---2---2---|0---0---0---0---|

B :2---2---2---2---|2---2---2---2---|3---3---3---3---|0---0---0---0---|

G :2---2---2---2---|2---2---2---2---|4---4---4---4---|1---1---1---1---|

D :2---2---2---2---|0---0---0---0---|4---4---4---4---|2---2---2---2---|

A :0---0---0---0---|----------------|2---2---2---2---|2---2---2---2---|

E :----------------|----------------|----------------|0---0---0---0---|

 

G :----------------|----------------|----------------|----------------|

D :----------------|----------------|----------------|----------------|

A :----------------|5---5---4-4-4-0-|2---2---2-2-2-0-|7---7---7-7-7---|

E :5---5---5-5-5-0-|----------------|----------------|--------------4-|

 

49 :0---8---6---8---|6---8---6---8---|6---8---6---8---|6---8---6---8---|

42 :----------------|----------------|----------------|----------------|

38 :----0-------0---|----0-------0---|----0-------0---|----0-------0---|

38 :----0-------0---|----0-------0---|----0-------0---|----0-------0---|

35 :0-------0-0-----|0-------0-0-----|0-------0-0-----|0-------0-0-----|

35 :0-------0-0-----|0-------0-0-----|0-------0-0-----|0-------0-0-----|

 

E :----------------|----------------|----------------|----------------|

B :----------------|----------------|----------------|----------------|

G :--------6-6---6-|--------4-6---7-|--6---4---2---1-|----1-2---4-6-6-|

D :----------------|----------------|----------------|----------------|

A :----------------|----------------|----------------|----------------|

E :----------------|----------------|----------------|----------------|

 

=============================================================================

 

E :----------------|----------------|------------------|

B :----------------|----------------|------------------|

G :----------------|----------------|------------------|

D :----------------|----------------|------------------|

A :----------------|----------------|------------------|

E :----------------|----------------|------------------|

 

E :0---0---0---0---|2---2---2---2---|2-----2---2---2---|

B :2---2---2---2---|2---2---2---2---|3-----3---3---3---|

G :2---2---2---2---|2---2---2---2---|4-----4---4---4---|

D :2---2---2---2---|0---0---0---0---|4-----4---4---4---|

A :0---0---0---0---|----------------|2-----2---2---2---|

E :----------------|----------------|------------------|

 

G :----------------|----------------|------------------|

D :----------------|----------------|------------------|

A :----------------|5---5---4-4-4-0-|2-----2---2-2-2-0-|

E :5---5---5-5-5-0-|----------------|------------------|

 

49 :6---8---6---8---|6---8---6---8---|6-----8---6---8---|

42 :----------------|----------------|------------------|

38 :----0-------0---|----0-------0---|------0-------0---|

38 :----0-------0---|----0-------0---|------0-------0---|

35 :0-------0-0-----|0-------0-0-----|0---------0-0-----|

35 :0-------0-0-----|0-------0-0-----|0---------0-0-----|

 

E :----------------|----------------|------------------|

B :----------------|----------------|------------------|

G :-----*--4-6---7-|--6---4---6-2-4-|--2---------2---1-|

D :----------------|----------------|----4-------------|

A :----------------|----------------|------------------|

E :----------------|----------------|------------------|

 

=============================================================================

 

E :----------------|----------------|----------------|

B :----------------|----------------|----------------|

G :----------------|----------------|----------------|

D :----------------|----------------|----------------|

A :----------------|----------------|----------------|

E :----------------|----------------|----------------|

 

E :0---0---0---0---|0---0---0---0---|2---2---2---2---|

B :0---0---0---0---|2---2---2---2---|2---2---2---2---|

G :1---1---1---1---|2---2---2---2---|2---2---2---2---|

D :2---2---2---2---|2---2---2---2---|0---0---0---0---|

A :2---2---2---2---|0---0---0---0---|----------------|

E :0---0---0---0---|----------------|----------------|

 

G :----------------|----------------|----------------|

D :----------------|----------------|----------------|

A :7---7---7-7-7---|----------------|5---5---4-4-4-0-|

E :--------------4-|5---5---5-5-5-0-|----------------|

 

49 :6---8---6---8---|0---8---6---8---|6---8---6---8---|

42 :----------------|----------------|----------------|

38 :----0-------0---|----0-------0---|----0-------0---|

38 :----0-------0---|----0-------0---|----0-------0---|

35 :0-------0-0-----|0-------0-0-----|0-------0-0-----|

35 :0-------0-0-----|0-------0-0-----|0-------0-0-----|

 

E :----------------|----------------|----------------|

B :----------------|----------------|----------------|

G :--1---2---4-6-6-|----*---6-6---6-|-----*--4-6---7-|

D :----------------|----------------|----------------|

A :----------------|----------------|----------------|

E :----------------|----------------|----------------|

 

=============================================================================

 

E :------------------|--------------------------|----------------|

B :------------------|--------------------------|----------------|

G :------------------|--------------------------|----------------|

D :------------------|--------------------------|----------------|

A :------------------|--------------------------|----------------|

E :------------------|--------------------------|----------------|

 

E :2---2---2---2-----|0-----0-----0------0------|0---0---0---0---|

B :3---3---3---3-----|0-----0-----0------0------|2---2---2---2---|

G :4---4---4---4-----|1-----1-----1------1------|2---2---2---2---|

D :4---4---4---4-----|2-----2-----2------2------|2---2---2---2---|

A :2---2---2---2-----|2-----2-----2------2------|0---0---0---0---|

E :------------------|0-----0-----0------0------|----------------|

 

G :------------------|--------------------------|----------------|

D :------------------|--------------------------|----------------|

A :2---2---2-2-2--0--|7-----7-----7--7---7------|----------------|

E :------------------|-----------------------4--|5---5---5-5-5-0-|

 

49 :6---8---6---8-----|6-----8-----6------8------|6---8---6---8---|

42 :------------------|--------------------------|----------------|

38 :----0-------0-----|------0------------0------|----0-------0---|

38 :----0-------0-----|------0------------0------|----0-------0---|

35 :0-------0-0-------|0-----------0--0----------|0-------0-0-----|

35 :0-------0-0-------|0-----------0--0----------|0-------0-0-----|

 

E :------------------|--------------------------|----------------|

B :--------------(0)-|--(0)---(2)---(3)-(5)-(5)-|-----*----------|

G :--6---4---2----1--|---1-----2-----4---6---6--|-----*--6-6---7-|

D :------------------|--------------------------|----------------|

A :------------------|--------------------------|----------------|

E :------------------|--------------------------|----------------|

 

=============================================================================

 

E :----------------|--------------------|---------------------------|

B :----------------|--------------------|---------------------------|

G :----------------|--------------------|---------------------------|

D :----------------|--------------------|---------------------------|

A :----------------|--------------------|---------------------------|

E :----------------|--------------------|---------------------------|

 

E :2---2---2---2---|2-----2---2---2-----|0-----0------0------0------|

B :2---2---2---2---|3-----3---3---3-----|0-----0------0------0------|

G :2---2---2---2---|4-----4---4---4-----|1-----1------1------1------|

D :0---0---0---0---|4-----4---4---4-----|2-----2------2------2------|

A :----------------|2-----2---2---2-----|2-----2------2------2------|

E :----------------|--------------------|0-----0------0------0------|

 

G :----------------|--------------------|---------------------------|

D :----------------|--------------------|---------------------------|

A :5---5---4-4-4-0-|2-----2---2-2-2--0--|7-----7------7--7---7------|

E :----------------|--------------------|---------------------------|

 

49 :6---8---6---8---|6-----8---6---8-----|6-----8------6------0------|

42 :----------------|--------------------|---------------------------|

38 :----0-------0---|------0-------0-----|------0----0--------0------|

38 :----0-------0---|------0-------0-----|------0----0--------0------|

35 :0-------0-0-----|0---------0-0-------|0------------0--0----------|

35 :0-------0-0-----|0---------0-0-------|0------------0--0----------|

 

E :----------------|--------------------|---------------------------|

B :----------------|----------------(0)-|--(0)---(2)----(3)-(5)-(5)-|

G :--6---4---6-2-4-|--2---------2-1--1--|---1-----2------4---6---6--|

D :----------------|----4---------------|---------------------------|

A :----------------|--------------------|---------------------------|

E :----------------|--------------------|---------------------------|

 

=============================================================================

 

E :------------------|--------------------|------------------|

B :------------------|--------------------|------------------|

G :------------------|--------------------|------------------|

D :------------------|--------------------|------------------|

A :------------------|--------------------|------------------|

E :------------------|--------------------|------------------|

 

E :2---2----2----2---|-4----4----4----4---|2---2----2----2---|

B :2---2----2----2---|-5----5----5----5---|2---2----2----2---|

G :2---2----2----2---|-6----6----6----6---|2---2----2----2---|

D :4---4----4----4---|-6----6----6----6---|4---4----4----4---|

A :4---4----4----4---|-4----4----4----4---|4---4----4----4---|

E :2---2----2----2---|--------------------|2---2----2----2---|

 

G :------------------|--------------------|------------------|

D :------------------|--------------------|------------------|

A :9---9----9--9-9-0-|-4----4----4--4-4-0-|9---9----9--9-9-0-|

E :------------------|--------------------|------------------|

 

49 :0---8----6----0---|-6----0----6----0---|6---0----6----0---|

42 :------------------|--------------------|------------------|

38 :----0---------0---|------0---------0---|----0---------0---|

38 :----0---------0---|------0---------0---|----0---------0---|

35 :0--------0--0-----|-0---------0--0-----|0--------0--0-----|

35 :0--------0--0-----|-0---------0--0-----|0--------0--0-----|

 

E :--------(5)-------|(4)-------(0)-------|*-------(5)-------|

B :-----*---7--------|-5---------2--------|*--------7--------|

G :-----*------------|--------------------|------------------|

D :------------------|--------------------|------------------|

A :------------------|--------------------|------------------|

E :------------------|--------------------|------------------|

 

=============================================================================

 

E :--------------------|----------------------|------------------------|

B :--------------------|----------------------|------------------------|

G :--------------------|----------------------|------------------------|

D :--------------------|----------------------|------------------------|

A :--------------------|----------------------|------------------------|

E :--------------------|----------------------|------------------------|

 

E :-4----4----4----4---|5---5----5------5-----|2-----2-----2-----2-----|

B :-5----5----5----5---|7---7----7------7-----|3-----3-----3-----3-----|

G :-6----6----6----6---|6---6----6------6-----|4-----4-----4-----4-----|

D :-6----6----6----6---|7---7----7------7-----|4-----4-----4-----4-----|

A :-4----4----4----4---|5---5----5------5-----|2-----2-----2-----2-----|

E :--------------------|----------------------|------------------------|

 

G :--------------------|----------------------|------------------------|

D :--------------------|----------------------|------------------------|

A :-4----4----4--4-4-0-|5---5----5---5--5--0--|2-----2-----2--2--2-----|

E :--------------------|----------------------|------------------------|

 

49 :-6----0----6----0---|6---8----6------8-----|6-----8-----6-----8-----|

42 :--------------------|----------------------|------------------------|

38 :------0---------0---|----0-----------0-----|------0-----------0-----|

38 :------0---------0---|----0-----------0-----|------0-----------0-----|

35 :-0---------0--0-----|0--------0---0--------|0-----------0--0--------|

35 :-0---------0--0-----|0--------0---0--------|0-----------0--0--------|

 

E :(4)-------(0)-------|*---------------------|------------------------|

B :-5---------2--------|*-------(5)-(5)---(5)-|--(5)---(3)---(2)---(3)-|

G :--------------------|---------6---6-----6--|---6-----4-----2-----4--|

D :--------------------|----------------------|------------------------|

A :--------------------|----------------------|------------------------|

E :--------------------|----------------------|------------------------|

 

=============================================================================

 

E :----------------|----------------------|-----------------|

B :----------------|----------------------|-----------------|

G :----------------|----------------------|-----------------|

D :----------------|----------------------|-----------------|

A :----------------|----------------------|-----------------|

E :----------------|----------------------|-----------------|

 

E :3---3---3---3---|3---3------3-----3----|-0---0---0---0---|

B :0---0---0---0---|0---0------0-----0----|-2---2---2---2---|

G :0---0---0---0---|0---0------0-----0----|-2---2---2---2---|

D :0---0---0---0---|0---0------0-----0----|-2---2---2---2---|

A :*---*---*---*---|*---*------*-----*----|-0---0---0---0---|

E :3---3---3---3---|3---3------3-----3----|-----------------|

 

G :----------------|----------------------|-----------------|

D :----------------|----------------------|-----------------|

A :----------------|----------------------|-----------------|

E :3---3---3-3-3-0-|3---3------3--0--3-/4-|/5---5---5-5-5-0-|

 

49 :6---8---6---8---|6---8------6-----0----|-0---8---6---8---|

42 :----------------|----------------------|-----------------|

38 :----0-------0---|----0----0-------0----|-----0-------0---|

38 :----0-------0---|----0----0-------0----|-----0-------0---|

35 :0-------0-0-----|0----------0--0-------|-0-------0-0-----|

35 :0-------0-0-----|0----------0--0-------|-0-------0-0-----|

 

E :----------------|----------------------|-----------------|

B :-------------*--|------(5)----(3)------|-*---------------|

G :-------------*--|-------5------4-------|-*-------6-6---6-|

D :----------------|----------------------|-----------------|

A :----------------|----------------------|-----------------|

E :----------------|----------------------|-----------------|

 

=============================================================================

 

E :----------------|----------------|----------------|----------------|

B :----------------|----------------|----------------|----------------|

G :----------------|----------------|----------------|----------------|

D :----------------|----------------|----------------|----------------|

A :----------------|----------------|----------------|----------------|

E :----------------|----------------|----------------|----------------|

 

E :2---2---2---2---|2---2---2---2---|0---0---0---0---|0---0---0---0---|

B :2---2---2---2---|3---3---3---3---|0---0---0---0---|2---2---2---2---|

G :2---2---2---2---|4---4---4---4---|1---1---1---1---|2---2---2---2---|

D :0---0---0---0---|4---4---4---4---|2---2---2---2---|2---2---2---2---|

A :----------------|2---2---2---2---|2---2---2---2---|0---0---0---0---|

E :----------------|----------------|0---0---0---0---|----------------|

 

G :----------------|----------------|----------------|----------------|

D :----------------|----------------|----------------|----------------|

A :5---5---4-4-4-0-|2---2---2-2-2-0-|7---7---7-7-7---|----------------|

E :----------------|----------------|--------------4-|5---5---5-5-5-0-|

 

49 :6---8---6---8---|6---8---6---8---|6---8---6---8---|6---8---6---8---|

42 :----------------|----------------|----------------|----------------|

38 :----0-------0---|----0-------0---|----0-------0---|----0-------0---|

38 :----0-------0---|----0-------0---|----0-------0---|----0-------0---|

35 :0-------0-0-----|0-------0-0-----|0-------0-0-----|0-------0-0-----|

35 :0-------0-0-----|0-------0-0-----|0-------0-0-----|0-------0-0-----|

 

E :----------------|----------------|----------------|----------------|

B :----------------|----------------|----------------|----------------|

G :--------4-6---7-|--6---4---2---1-|--1---2---4-6-6-|-----*--4-6---7-|

D :----------------|----------------|----------------|----------------|

A :----------------|----------------|----------------|----------------|

E :----------------|----------------|----------------|----------------|

 

=============================================================================

 

E :----------------|------------------|----------------|

B :----------------|------------------|----------------|

G :----------------|------------------|----------------|

D :----------------|------------------|----------------|

A :----------------|------------------|----------------|

E :----------------|------------------|----------------|

 

E :2---2---2---2---|2-----2---2---2---|0---0---0---0---|

B :2---2---2---2---|3-----3---3---3---|0---0---0---0---|

G :2---2---2---2---|4-----4---4---4---|1---1---1---1---|

D :0---0---0---0---|4-----4---4---4---|2---2---2---2---|

A :----------------|2-----2---2---2---|2---2---2---2---|

E :----------------|------------------|0---0---0---0---|

 

G :----------------|------------------|----------------|

D :----------------|------------------|----------------|

A :5---5---4-4-4-0-|2-----2---2-2-2-0-|7---7---7-7-7---|

E :----------------|------------------|--------------4-|

 

49 :6---8---6---8---|6-----8---6---8---|6---8---6---8---|

42 :----------------|------------------|----------------|

38 :----0-------0---|------0-------0---|----0-------0---|

38 :----0-------0---|------0-------0---|----0-------0---|

35 :0-------0-0-----|0---------0-0-----|0-------0-0-----|

35 :0-------0-0-----|0---------0-0-----|0-------0-0-----|

 

E :----------------|------------------|----------------|

B :----------------|------------------|----------------|

G :--6---4---6-2-4-|--2---------2-1-1-|--1---2---4-6-6-|

D :----------------|----4-------------|----------------|

A :----------------|------------------|----------------|

E :----------------|------------------|----------------|

 

=============================================================================

 

E :----------------|----------------|------------------|

B :----------------|----------------|------------------|

G :--------6-6---6-|--------4-6---7-|--6---4---2----1--|

D :----------------|----------------|------------------|

A :----------------|----------------|------------------|

E :----------------|----------------|------------------|

 

E :0---0---0---0---|2---2---2---2---|2---2---2---2-----|

B :2---2---2---2---|2---2---2---2---|3---3---3---3-----|

G :2---2---2---2---|2---2---2---2---|4---4---4---4-----|

D :2---2---2---2---|0---0---0---0---|4---4---4---4-----|

A :0---0---0---0---|----------------|2---2---2---2-----|

E :----------------|----------------|------------------|

 

G :----------------|----------------|------------------|

D :----------------|----------------|------------------|

A :----------------|5---5---4-4-4-0-|2---2---2-2-2--0--|

E :5---5---5-5-5-0-|----------------|------------------|

 

49 :0---8---6---8---|6---8---6---8---|6---8---6---8-----|

42 :----------------|----------------|------------------|

38 :----0-------0---|----0-------0---|----0-------0-----|

38 :----0-------0---|----0-------0---|----0-------0-----|

35 :0-------0-0-----|0-------0-0-----|0-------0-0-------|

35 :0-------0-0-----|0-------0-0-----|0-------0-0-------|

 

E :----------------|----------------|------------------|

B :----------------|----------------|--------------(0)-|

G :----*---6-6---6-|-----*--4-6---7-|--6---4---2----1--|

D :----------------|----------------|------------------|

A :----------------|----------------|------------------|

E :----------------|----------------|------------------|

 

=============================================================================

 

E :--------------------------|----------------|----------------|

B :--------------------------|----------------|----------------|

G :---1-----2-----4---6---6--|--------6-6---7-|--6---4---6-2-4-|

D :--------------------------|----------------|----------------|

A :--------------------------|----------------|----------------|

E :--------------------------|----------------|----------------|

 

E :0-----0-----0------0------|0---0---0---0---|2---2---2---2---|

B :0-----0-----0------0------|2---2---2---2---|2---2---2---2---|

G :1-----1-----1------1------|2---2---2---2---|2---2---2---2---|

D :2-----2-----2------2------|2---2---2---2---|0---0---0---0---|

A :2-----2-----2------2------|0---0---0---0---|----------------|

E :0-----0-----0------0------|----------------|----------------|

 

G :--------------------------|----------------|----------------|

D :--------------------------|----------------|----------------|

A :7-----7-----7--7---7------|----------------|5---5---4-4-4-0-|

E :-----------------------4--|5---5---5-5-5-0-|----------------|

 

49 :6-----8-----6------8------|6---8---6---8---|6---8---6---8---|

42 :--------------------------|----------------|----------------|

38 :------0------------0------|----0-------0---|----0-------0---|

38 :------0------------0------|----0-------0---|----0-------0---|

35 :0-----------0--0----------|0-------0-0-----|0-------0-0-----|

35 :0-----------0--0----------|0-------0-0-----|0-------0-0-----|

 

E :--------------------------|----------------|----------------|

B :--(0)---(2)---(3)-(5)-(5)-|-----*----------|----------------|

G :---1-----2-----4---6---6--|-----*--6-6---7-|--6---4---6-2-4-|

D :--------------------------|----------------|----------------|

A :--------------------------|----------------|----------------|

E :--------------------------|----------------|----------------|

 

=============================================================================

 

E :--------------------|---------------------------|------------------|

B :--------------------|---------------------------|------------------|

G :--2---------2-1--1--|---1-----2------4---6---6--|------------------|

D :----4---------------|---------------------------|------------------|

A :--------------------|---------------------------|------------------|

E :--------------------|---------------------------|------------------|

 

E :2-----2---2---2-----|0-----0------0------0------|2---2----2----2---|

B :3-----3---3---3-----|0-----0------0------0------|2---2----2----2---|

G :4-----4---4---4-----|1-----1------1------1------|2---2----2----2---|

D :4-----4---4---4-----|2-----2------2------2------|4---4----4----4---|

A :2-----2---2---2-----|2-----2------2------2------|4---4----4----4---|

E :--------------------|0-----0------0------0------|2---2----2----2---|

 

G :--------------------|---------------------------|------------------|

D :--------------------|---------------------------|------------------|

A :2-----2---2-2-2--0--|7-----7------7--7---7------|9---9----9--9-9-0-|

E :--------------------|---------------------------|------------------|

 

49 :6-----8---6---8-----|6-----8------6------0------|0---8----6----8---|

42 :--------------------|---------------------------|------------------|

38 :------0-------0-----|------0----0--------0------|----0---------0---|

38 :------0-------0-----|------0----0--------0------|----0---------0---|

35 :0---------0-0-------|0------------0--0----------|0--------0--0-----|

35 :0---------0-0-------|0------------0--0----------|0--------0--0-----|

 

E :--------------------|---------------------------|--------(5)-------|

B :----------------(0)-|--(0)---(2)----(3)-(5)-(5)-|-----*---7--------|

G :--2---------2-1--1--|---1-----2------4---6---6--|-----*------------|

D :----4---------------|---------------------------|------------------|

A :--------------------|---------------------------|------------------|

E :--------------------|---------------------------|------------------|

 

=============================================================================

 

E :--------------------|------------------|--------------------|

B :--------------------|------------------|--------------------|

G :-*------------------|------------------|--------------------|

D :--------------------|------------------|--------------------|

A :--------------------|------------------|--------------------|

E :--------------------|------------------|--------------------|

 

E :-4----4----4----4---|2---2----2----2---|-4----4----4----4---|

B :-5----5----5----5---|2---2----2----2---|-5----5----5----5---|

G :-6----6----6----6---|2---2----2----2---|-6----6----6----6---|

D :-6----6----6----6---|4---4----4----4---|-6----6----6----6---|

A :-4----4----4----4---|4---4----4----4---|-4----4----4----4---|

E :--------------------|2---2----2----2---|--------------------|

 

G :--------------------|------------------|--------------------|

D :--------------------|------------------|--------------------|

A :-4----4----4--4-4-0-|9---9----9--9-9-0-|-4----4----4--4-4-0-|

E :--------------------|------------------|--------------------|

 

49 :-6----8----6----8---|6---0----6----0---|-6----0----6----0---|

42 :--------------------|------------------|--------------------|

38 :------0---------0---|----0---------0---|------0---------0---|

38 :------0---------0---|----0---------0---|------0---------0---|

35 :-0---------0--0-----|0--------0--0-----|-0---------0--0-----|

35 :-0---------0--0-----|0--------0--0-----|-0---------0--0-----|

 

E :(4)-------(0)-------|*-------(5)-------|(4)-------(0)-------|

B :-5---------2--------|*--------7--------|-5---------2--------|

G :--------------------|------------------|--------------------|

D :--------------------|------------------|--------------------|

A :--------------------|------------------|--------------------|

E :--------------------|------------------|--------------------|

 

=============================================================================

 

E :----------------------|------------------------|----------------|

B :----------------------|------------------------|----------------|

G :----------------------|------------------------|----------------|

D :----------------------|------------------------|----------------|

A :----------------------|------------------------|----------------|

E :----------------------|------------------------|----------------|

 

E :5---5----5------5-----|2-----2-----2-----2-----|3---3---3---3---|

B :7---7----7------7-----|3-----3-----3-----3-----|0---0---0---0---|

G :6---6----6------6-----|4-----4-----4-----4-----|0---0---0---0---|

D :7---7----7------7-----|4-----4-----4-----4-----|0---0---0---0---|

A :5---5----5------5-----|2-----2-----2-----2-----|*---*---*---*---|

E :----------------------|------------------------|3---3---3---3---|

 

G :----------------------|------------------------|----------------|

D :----------------------|------------------------|----------------|

A :5---5----5---5--5--0--|2-----2-----2--2--2-----|----------------|

E :----------------------|------------------------|3---3---3-3-3-0-|

 

49 :6---8----6------8-----|6-----8-----6-----8-----|6---8---6---8---|

42 :----------------------|------------------------|----------------|

38 :----0-----------0-----|------0-----------0-----|----0-------0---|

38 :----0-----------0-----|------0-----------0-----|----0-------0---|

35 :0--------0---0--------|0-----------0--0--------|0-------0-0-----|

35 :0--------0---0--------|0-----------0--0--------|0-------0-0-----|

 

E :*---------------------|------------------------|----------------|

B :*-------(5)-(5)---(5)-|--(5)---(3)---(2)---(3)-|-------------*--|

G :---------6---6-----6--|---6-----4-----2-----4--|-------------*--|

D :----------------------|------------------------|----------------|

A :----------------------|------------------------|----------------|

E :----------------------|------------------------|----------------|

 

=============================================================================

 

E :----------------------|------------------------------|

B :----------------------|2-----------------------------|

G :----------------------|------------------------------|

D :----------------------|-------4----------------------|

A :----------------------|------------------------------|

E :----------------------|------------------------------|

 

E :3---3------3-----3----|0--0---0---0---0---0---0---0--|

B :0---0------0-----0----|2--2---2---2---2---2---2---2--|

G :0---0------0-----0----|2--2---2---2---2---2---2---2--|

D :0---0------0-----0----|0--0---0---0---0---0---0---0--|

A :*---*------*-----*----|------------------------------|

E :3---3------3-----3----|------------------------------|

 

G :----------------------|------------------------------|

D :----------------------|------------------------------|

A :----------------------|5--5---5---5---5---5---5---5--|

E :3---3------3--0--3-/4-|------------------------------|

 

49 :6---8------6-----0----|0-----------------------------|

42 :----------------------|4-(4)-(4)-(4)-(4)-(4)-(4)-(4)-|

38 :----0----0-------0----|------------------------------|

38 :----0----0-------0----|------------------------------|

35 :0----------0--0-------|0-(0)-(0)-(0)-(0)-(0)-(0)-(0)-|

35 :0----------0--0-------|0--0---0---0---0---0---0---0--|

 

E :----------------------|------------------------------|

B :------(5)----(3)------|*-----------------------------|

G :-------5------4-------|*--------------6---6-------6--|

D :----------------------|------------------------------|

A :----------------------|------------------------------|

E :----------------------|------------------------------|

 

=============================================================================

 

E :--------------------------------|----------------|----------------|

B :--------------------------------|----------------|----------------|

G :--------------------------------|----------------|----------------|

D :--------------------------------|----------------|----------------|

A :--------------------------------|----------------|----------------|

E :--------------------------------|----------------|----------------|

 

E :-0---0---0---0---0---0---0---0--|0-0-0-0-0-0-0-0-|0-0-0-0-0-0-0-0-|

B :-2---2---2---2---2---2---2---2--|2-2-2-2-2-2-2-2-|2-2-2-2-2-2-2-2-|

G :-2---2---2---2---2---2---2---2--|2-2-2-2-2-2-2-2-|2-2-2-2-2-2-2-2-|

D :-0---0---0---0---0---0---0---0--|0-0-0-0-0-0-0-0-|0-0-0-0-0-0-0-0-|

A :--------------------------------|----------------|----------------|

E :--------------------------------|----------------|----------------|

 

G :--------------------------------|----------------|----------------|

D :--------------------------------|----------------|----------------|

A :-5---5---5---5---5---5---5---0--|5-5-5-5-5-5-5-5-|5-5-5-5-5-5-5---|

E :--------------------------------|----------------|--------------0-|

 

49 :--------------------------------|----------------|----------------|

42 :(4)-(4)-(4)-(4)-(4)-(4)-(4)-(4)-|4-4-4-4-4-4-4-4-|4-4-4-4-4-4-4-4-|

38 :--------------------------------|----------------|----------------|

38 :--------------------------------|----------------|----------------|

35 :(0)-(0)-(0)-(0)--0---0---0---0--|0-0-0-0-0-0-0-0-|0-0-0-0-0-0-0-0-|

35 :-0---0---0---0---0---0---0---0--|0-0-0-0-0-0-0-0-|0-0-0-0-0-0-0-0-|

 

E :--------------------------------|----------------|----------------|

B :--------------------------------|----------------|----------------|

G :-------------2-------6-------6--|----*---6-6---6-|------2---4-6-4-|

D :-----4--------------------------|----------------|----4-----------|

A :--------------------------------|----------------|----------------|

E :--------------------------------|----------------|----------------|

 

=============================================================================

 

E :----------------|--------------------|----------------|

B :----------------|--------------------|----------------|

G :----------------|--------------------|----------------|

D :----------------|--------------------|----------------|

A :----------------|--------------------|----------------|

E :----------------|--------------------|----------------|

 

E :3-3-3-3-3-3-3-3-|3-3-3--3--3--3--3-3-|3-3-3-3-3-3-3-3-|

B :0-0-0-0-0-0-0-0-|0-0-0--0--0--0--0-0-|0-0-0-0-0-0-0-0-|

G :0-0-0-0-0-0-0-0-|0-0-0--0--0--0--0-0-|0-0-0-0-0-0-0-0-|

D :0-0-0-0-0-0-0-0-|0-0-0--0--0--0--0-0-|0-0-0-0-0-0-0-0-|

A :*-*-*-*-*-*-*-*-|*-*-*--*--*--*--*-*-|*-*-*-*-*-*-*-*-|

E :3-3-3-3-3-3-3-3-|3-3-3--3--3--3--3-3-|3-3-3-3-3-3-3-3-|

 

G :----------------|--------------------|----------------|

D :----------------|--------------------|----------------|

A :----------------|--------------------|----------------|

E :3-3-3-3-3-3-3-3-|3-3-3--3--3--0--3-0-|3-3-3-3-3-3-3-3-|

 

49 :0---------------|--------------------|0---------------|

42 :4-4-4-4-4-4-4-4-|4-4-4--4--4--4--4-4-|4-4-4-4-4-4-4-4-|

38 :----------------|--------------------|----------------|

38 :----------------|--------------------|----------------|

35 :0-0-0-0-0-0-0-0-|0-0-0--0--0--0--0-0-|0-0-0-0-0-0-0-0-|

35 :0-0-0-0-0-0-0-0-|0-0-0--0--0--0--0-0-|0-0-0-0-0-0-0-0-|

 

E :----------------|--------------------|----------------|

B :----------------|------(5)---(3)-----|*---------------|

G :-------*--------|-------5-----4------|*---------------|

D :----------------|--------------------|----------------|

A :----------------|--------------------|----------------|

E :----------------|--------------------|----------------|

 

=============================================================================

 

E :-----------------------------|----------------|-----------------|

B :-----------------------------|----------------|-----------------|

G :-----------------------------|--------6-6---6-|--------4-6---/7-|

D :-----------------------------|----------------|-----------------|

A :-----------------------------|----------------|-----------------|

E :-----------------------------|----------------|-----------------|

 

E :--3--3--3---3---3---3----3-3-|0---0---0---0---|2---2---2---2----|

B :--0--0--0---0---0---0----0-0-|2---2---2---2---|2---2---2---2----|

G :--0--0--0---0---0---0----0-0-|2---2---2---2---|2---2---2---2----|

D :--0--0--0---0---0---0----0-0-|2---2---2---2---|0---0---0---0----|

A :--*--*--*---*---*---*----*-*-|0---0---0---0---|-----------------|

E :--3--3--3---3---3---3----3-3-|----------------|-----------------|

 

G :-----------------------------|----------------|-----------------|

D :-----------------------------|----------------|-----------------|

A :-----------------------------|----------------|5---5---4-4-4--0-|

E :/15-15-15--15--15--15--/10---|5---5---5-5-5-0-|-----------------|

 

49 :-----------------------------|0---8---6---8---|6---8---6---8----|

42 :--4--4--4---4---4---4----4-4-|----------------|-----------------|

38 :----------------0--------0---|----0-------0---|----0-------0----|

38 :----------------0--------0---|----0-------0---|----0-------0----|

35 :--0--0--0---0-------0------0-|0-------0-0-----|0-------0-0------|

35 :--0--0--0---0-------0------0-|0-------0-0-----|0-------0-0------|

 

E :-----------------------------|----------------|-----------------|

B :----------(-5)----(-3)-------|*---------------|-----------------|

G :------------5-------4--------|*-------6-6---6-|--------4-6---/7-|

D :-----------------------------|----------------|-----------------|

A :-----------------------------|----------------|-----------------|

E :-----------------------------|----------------|-----------------|

 

=============================================================================

 

E :------------------|---------------------------|-----------------|

B :--------------(0)-|--(0)---(2)---(3)/-(5)-(5)-|-----------------|

G :--6---4---2----1--|---1-----2-----4-/--6---6--|--------4-6---/7-|

D :------------------|---------------------------|-----------------|

A :------------------|---------------------------|-----------------|

E :------------------|---------------------------|-----------------|

 

E :2---2---2---2-----|0-----0-----0-------0------|0---0---0---0----|

B :3---3---3---3-----|0-----0-----0-------0------|2---2---2---2----|

G :4---4---4---4-----|1-----1-----1-------1------|2---2---2---2----|

D :4---4---4---4-----|2-----2-----2-------2------|2---2---2---2----|

A :2---2---2---2-----|2-----2-----2-------2------|0---0---0---0----|

E :------------------|0-----0-----0-------0------|-----------------|

 

G :------------------|---------------------------|-----------------|

D :------------------|---------------------------|-----------------|

A :2---2---2-2-2--0--|7-----7-----7--7----7------|-----------------|

E :------------------|------------------------4--|5---5---5-5-5--0-|

 

49 :6---8---6---8-----|6-----8-----6-------8------|6---8---6---8----|

42 :------------------|---------------------------|-----------------|

38 :----0-------0-----|------0-------------0------|----0-------0----|

38 :----0-------0-----|------0-------------0------|----0-------0----|

35 :0-------0-0-------|0-----------0--0-----------|0-------0-0------|

35 :0-------0-0-------|0-----------0--0-----------|0-------0-0------|

 

E :------------------|---------------------------|-----------------|

B :--------------(0)-|--(0)---(2)---(3)/-(5)-(5)-|-----------------|

G :--6---4---2----1--|---1-----2-----4-/--6---6--|--------4-6---/7-|

D :------------------|---------------------------|-----------------|

A :------------------|---------------------------|-----------------|

E :------------------|---------------------------|-----------------|

 

=============================================================================

 

E :----------------|---------------------|---------------------------|

B :----------------|-----------------(0)-|--(0)---(2)---(3)/-(5)-(5)-|

G :--6---4---6-2-4-|--2---------2-\1--1--|---1-----2-----4-/--6---6--|

D :----------------|----4----------------|---------------------------|

A :----------------|---------------------|---------------------------|

E :----------------|---------------------|---------------------------|

 

E :2---2---2---2---|2-----2---2----2-----|0-----0-----0-------0------|

B :2---2---2---2---|3-----3---3----3-----|0-----0-----0-------0------|

G :2---2---2---2---|4-----4---4----4-----|1-----1-----1-------1------|

D :0---0---0---0---|4-----4---4----4-----|2-----2-----2-------2------|

A :----------------|2-----2---2----2-----|2-----2-----2-------2------|

E :----------------|---------------------|0-----0-----0-------0------|

 

G :----------------|---------------------|---------------------------|

D :----------------|---------------------|---------------------------|

A :5---5---4-4-4-0-|2-----2---2-2--2--0--|7-----7-----7--7----7------|

E :----------------|---------------------|------------------------4--|

 

49 :6---8---6---8---|6-----8---6----8-----|6-----8-----6-------8------|

42 :----------------|---------------------|---------------------------|

38 :----0-------0---|------0--------0-----|------0-------------0------|

38 :----0-------0---|------0--------0-----|------0-------------0------|

35 :0-------0-0-----|0---------0-0--------|0-----------0--0-----------|

35 :0-------0-0-----|0---------0-0--------|0-----------0--0-----------|

 

E :----------------|---------------------|---------------------------|

B :----------------|-----------------(0)-|--(0)---(2)---(3)/-(5)-(5)-|

G :--6---4---6-2-4-|--2---------2-\1--1--|---1-----2-----4-/--6---6--|

D :----------------|----4----------------|---------------------------|

A :----------------|---------------------|---------------------------|

E :----------------|---------------------|---------------------------|

 

=============================================================================

 

E :----------------|----------------|------------------|

B :----------------|----------------|--------------(0)-|

G :--------6-6---6-|--------4-6---7-|--6---4---2----1--|

D :----------------|----------------|------------------|

A :----------------|----------------|------------------|

E :----------------|----------------|------------------|

 

E :0---0---0---0---|2---2---2---2---|2---2---2---2-----|

B :2---2---2---2---|2---2---2---2---|3---3---3---3-----|

G :2---2---2---2---|2---2---2---2---|4---4---4---4-----|

D :2---2---2---2---|0---0---0---0---|4---4---4---4-----|

A :0---0---0---0---|----------------|2---2---2---2-----|

E :----------------|----------------|------------------|

 

G :----------------|----------------|------------------|

D :----------------|----------------|------------------|

A :----------------|5---5---4-4-4-0-|2---2---2-2-2--0--|

E :5---5---5-5-5-0-|----------------|------------------|

 

49 :0---8---6---8---|6---8---6---8---|6---8---6---8-----|

42 :----------------|----------------|------------------|

38 :----0-------0---|----0-------0---|----0-------0-----|

38 :----0-------0---|----0-------0---|----0-------0-----|

35 :0-------0-0-----|0-------0-0-----|0-------0-0-------|

35 :0-------0-0-----|0-------0-0-----|0-------0-0-------|

 

E :----------------|----------------|------------------|

B :----------------|----------------|--------------(0)-|

G :--------6-6---6-|--------4-6---7-|--6---4---2----1--|

D :----------------|----------------|------------------|

A :----------------|----------------|------------------|

E :----------------|----------------|------------------|

 

=============================================================================

 

E :--------------------------|----------------|----------------|

B :--(0)---(2)---(3)-(5)-(5)-|----------------|----------------|

G :---1-----2-----4---6---6--|--------6-6---7-|--6---4---6-2-4-|

D :--------------------------|----------------|----------------|

A :--------------------------|----------------|----------------|

E :--------------------------|----------------|----------------|

 

E :0-----0-----0------0------|0---0---0---0---|2---2---2---2---|

B :0-----0-----0------0------|2---2---2---2---|2---2---2---2---|

G :1-----1-----1------1------|2---2---2---2---|2---2---2---2---|

D :2-----2-----2------2------|2---2---2---2---|0---0---0---0---|

A :2-----2-----2------2------|0---0---0---0---|----------------|

E :0-----0-----0------0------|----------------|----------------|

 

G :--------------------------|----------------|----------------|

D :--------------------------|----------------|----------------|

A :7-----7-----7--7---7------|----------------|5---5---4-4-4-0-|

E :-----------------------4--|5---5---5-5-5-0-|----------------|

 

49 :6-----8-----6------8------|6---8---6---8---|6---8---6---8---|

42 :--------------------------|----------------|----------------|

38 :------0------------0------|----0-------0---|----0-------0---|

38 :------0------------0------|----0-------0---|----0-------0---|

35 :0-----------0--0----------|0-------0-0-----|0-------0-0-----|

35 :0-----------0--0----------|0-------0-0-----|0-------0-0-----|

 

E :--------------------------|----------------|----------------|

B :--(0)---(2)---(3)-(5)-(5)-|----------------|----------------|

G :---1-----2-----4---6---6--|--------6-6---7-|--6---4---6-2-4-|

D :--------------------------|----------------|----------------|

A :--------------------------|----------------|----------------|

E :--------------------------|----------------|----------------|

 

=============================================================================

 

E :--------------------|----------------------------|------------------|

B :----------------(0)-|--(0)---(2)----(3)/-(5)-(5)-|------------------|

G :--2---------2-1--1--|---1-----2------4-/--6---6--|------------------|

D :----4---------------|----------------------------|------------------|

A :--------------------|----------------------------|------------------|

E :--------------------|----------------------------|------------------|

 

E :2-----2---2---2-----|0-----0------0-------0------|2---2----2----2---|

B :3-----3---3---3-----|0-----0------0-------0------|2---2----2----2---|

G :4-----4---4---4-----|1-----1------1-------1------|2---2----2----2---|

D :4-----4---4---4-----|2-----2------2-------2------|4---4----4----4---|

A :2-----2---2---2-----|2-----2------2-------2------|4---4----4----4---|

E :--------------------|0-----0------0-------0------|2---2----2----2---|

 

G :--------------------|----------------------------|------------------|

D :--------------------|----------------------------|------------------|

A :2-----2---2-2-2--0--|7-----7------7--7----7------|9---9----9--9-9-0-|

E :--------------------|----------------------------|------------------|

 

49 :6-----8---6---8-----|6-----8------6-------0------|0---8----6----8---|

42 :--------------------|----------------------------|------------------|

38 :------0-------0-----|------0----0---------0------|----0---------0---|

38 :------0-------0-----|------0----0---------0------|----0---------0---|

35 :0---------0-0-------|0------------0--0-----------|0--------0--0-----|

35 :0---------0-0-------|0------------0--0-----------|0--------0--0-----|

 

E :--------------------|----------------------------|--------(5)-------|

B :----------------(0)-|--(0)---(2)----(3)--(5)-(5)-|---------7--------|

G :--2---------2-1--1--|---1-----2------4----6---6--|---------*--------|

D :----4---------------|----------------------------|------------------|

A :--------------------|----------------------------|------------------|

E :--------------------|----------------------------|------------------|

 

=============================================================================

 

E :--------------------|------------------|--------------------|

B :-*------------------|------------------|--------------------|

G :-*------------------|------------------|--------------------|

D :--------------------|------------------|--------------------|

A :--------------------|------------------|--------------------|

E :--------------------|------------------|--------------------|

 

E :-4----4----4----4---|2---2----2----2---|-4----4----4----4---|

B :-5----5----5----5---|2---2----2----2---|-5----5----5----5---|

G :-6----6----6----6---|2---2----2----2---|-6----6----6----6---|

D :-6----6----6----6---|4---4----4----4---|-6----6----6----6---|

A :-4----4----4----4---|4---4----4----4---|-4----4----4----4---|

E :--------------------|2---2----2----2---|--------------------|

 

G :--------------------|------------------|--------------------|

D :--------------------|------------------|--------------------|

A :-4----4----4--4-4-0-|9---9----9--9-9-0-|-4----4----4--4-4-0-|

E :--------------------|------------------|--------------------|

 

49 :-6----8----6----8---|6---0----6----0---|-6----0----6----0---|

42 :--------------------|------------------|--------------------|

38 :------0---------0---|----0---------0---|------0---------0---|

38 :------0---------0---|----0---------0---|------0---------0---|

35 :-0---------0--0-----|0--------0--0-----|-0---------0--0-----|

35 :-0---------0--0-----|0--------0--0-----|-0---------0--0-----|

 

E :(4)-------(0)-------|*-------(5)-------|(4)-------(0)-------|

B :-5---------2--------|*--------7--------|-5---------2--------|

G :--------------------|------------------|--------------------|

D :--------------------|------------------|--------------------|

A :--------------------|------------------|--------------------|

E :--------------------|------------------|--------------------|

 

=============================================================================

 

E :----------------------|------------------------|----------------|

B :----------------------|------------------------|----------------|

G :----------------------|------------------------|----------------|

D :----------------------|------------------------|----------------|

A :----------------------|------------------------|----------------|

E :----------------------|------------------------|----------------|

 

E :5---5----5------5-----|2-----2-----2-----2-----|3---3---3---3---|

B :7---7----7------7-----|3-----3-----3-----3-----|0---0---0---0---|

G :6---6----6------6-----|4-----4-----4-----4-----|0---0---0---0---|

D :7---7----7------7-----|4-----4-----4-----4-----|0---0---0---0---|

A :5---5----5------5-----|2-----2-----2-----2-----|*---*---*---*---|

E :----------------------|------------------------|3---3---3---3---|

 

G :----------------------|------------------------|----------------|

D :----------------------|------------------------|----------------|

A :5---5----5---5--5--0--|2-----2-----2--2--2-----|----------------|

E :----------------------|------------------------|3---3---3-3-3-0-|

 

49 :6---8----6------8-----|6-----8-----6-----8-----|6---8---6---8---|

42 :----------------------|------------------------|----------------|

38 :----0-----------0-----|------0-----------0-----|----0-------0---|

38 :----0-----------0-----|------0-----------0-----|----0-------0---|

35 :0--------0---0--------|0-----------0--0--------|0-------0-0-----|

35 :0--------0---0--------|0-----------0--0--------|0-------0-0-----|

 

E :*---------------------|------------------------|----------------|

B :*-------(5)-(5)---(5)-|--(5)---(3)---(2)---(3)-|-------------*--|

G :---------6---6-----6--|---6-----4-----2-----4--|-------------*--|

D :----------------------|------------------------|----------------|

A :----------------------|------------------------|----------------|

E :----------------------|------------------------|----------------|

 

=============================================================================

 

E :----------------------|-----------------|----------------|

B :----------------------|-----------------|----------------|

G :----------------------|-----------------|----------------|

D :----------------------|-----------------|----------------|

A :----------------------|-----------------|----------------|

E :----------------------|-----------------|----------------|

 

E :3---3------3-----3----|-0---0---0---0---|2---2---2---2---|

B :0---0------0-----0----|-2---2---2---2---|2---2---2---2---|

G :0---0------0-----0----|-2---2---2---2---|2---2---2---2---|

D :0---0------0-----0----|-2---2---2---2---|0---0---0---0---|

A :*---*------*-----*----|-0---0---0---0---|----------------|

E :3---3------3-----3----|-----------------|----------------|

 

G :----------------------|-----------------|----------------|

D :----------------------|-----------------|----------------|

A :----------------------|-----------------|5---5---4-4-4-0-|

E :3---3------3--0--3-/4-|/5---5---5-5-5-0-|----------------|

 

49 :6---8------6-----0----|-0---8---6---8---|6---8---6---8---|

42 :----------------------|-----------------|----------------|

38 :----0----0-------0----|-----0-------0---|----0-------0---|

38 :----0----0-------0----|-----0-------0---|----0-------0---|

35 :0----------0--0-------|-0-------0-0-----|0-------0-0-----|

35 :0----------0--0-------|-0-------0-0-----|0-------0-0-----|

 

E :----------------------|-----------------|----------------|

B :------(5)----(3)------|-*---------------|----------------|

G :-------5------4-------|-*-------6-6---6-|--------4-6---7-|

D :----------------------|-----------------|----------------|

A :----------------------|-----------------|----------------|

E :----------------------|-----------------|----------------|

 

=============================================================================

 

E :------------------|--------------------------|----------------|

B :------------------|--------------------------|----------------|

G :------------------|--------------------------|----------------|

D :------------------|--------------------------|----------------|

A :------------------|--------------------------|----------------|

E :------------------|--------------------------|----------------|

 

E :2---2---2---2-----|0-----0-----0------0------|0---0---0---0---|

B :3---3---3---3-----|0-----0-----0------0------|2---2---2---2---|

G :4---4---4---4-----|1-----1-----1------1------|2---2---2---2---|

D :4---4---4---4-----|2-----2-----2------2------|2---2---2---2---|

A :2---2---2---2-----|2-----2-----2------2------|0---0---0---0---|

E :------------------|0-----0-----0------0------|----------------|

 

G :------------------|--------------------------|----------------|

D :------------------|--------------------------|----------------|

A :2---2---2-2-2--0--|7-----7-----7--7---7------|----------------|

E :------------------|-----------------------4--|5---5---5-5-5-0-|

 

49 :6---8---6---8-----|6-----8-----6------8------|6---8---6---8---|

42 :------------------|--------------------------|----------------|

38 :----0-------0-----|------0------------0------|----0-------0---|

38 :----0-------0-----|------0------------0------|----0-------0---|

35 :0-------0-0-------|0-----------0--0----------|0-------0-0-----|

35 :0-------0-0-------|0-----------0--0----------|0-------0-0-----|

 

E :------------------|--------------------------|----------------|

B :--------------(0)-|--(0)---(2)---(3)-(5)-(5)-|-----*----------|

G :--6---4---2----1--|---1-----2-----4---6---6--|-----*--4-6---7-|

D :------------------|--------------------------|----------------|

A :------------------|--------------------------|----------------|

E :------------------|--------------------------|----------------|

 

=============================================================================

 

E :----------------|--------------------|--------------------------|

B :----------------|--------------------|--------------------------|

G :----------------|--------------------|--------------------------|

D :----------------|--------------------|--------------------------|

A :----------------|--------------------|--------------------------|

E :----------------|--------------------|--------------------------|

 

E :2---2---2---2---|2-----2---2---2-----|0-----0-----0------0------|

B :2---2---2---2---|3-----3---3---3-----|0-----0-----0------0------|

G :2---2---2---2---|4-----4---4---4-----|1-----1-----1------1------|

D :0---0---0---0---|4-----4---4---4-----|2-----2-----2------2------|

A :----------------|2-----2---2---2-----|2-----2-----2------2------|

E :----------------|--------------------|0-----0-----0------0------|

 

G :----------------|--------------------|--------------------------|

D :----------------|--------------------|--------------------------|

A :5---5---4-4-4-0-|2-----2---2-2-2--0--|7-----7-----7--7---7------|

E :----------------|--------------------|-----------------------4--|

 

49 :6---8---6---8---|6-----8---6---8-----|6-----8-----6------8------|

42 :----------------|--------------------|--------------------------|

38 :----0-------0---|------0-------0-----|------0------------0------|

38 :----0-------0---|------0-------0-----|------0------------0------|

35 :0-------0-0-----|0---------0-0-------|0-----------0--0----------|

35 :0-------0-0-----|0---------0-0-------|0-----------0--0----------|

 

E :----------------|--------------------|--------------------------|

B :----------------|----------------(0)-|--(0)---(2)---(3)-(5)-(5)-|

G :--6---4---6-2-4-|--2---------2-1--1--|---1-----2-----4---6---6--|

D :----------------|----4---------------|--------------------------|

A :----------------|--------------------|--------------------------|

E :----------------|--------------------|--------------------------|

 

=============================================================================

 

E :----------------|----------------|--------------------|

B :----------------|----------------|--------------------|

G :--------4-6---7-|--6---4---6-2-4-|--2-----------------|

D :----------------|----------------|----4---------------|

A :----------------|----------------|--------------------|

E :----------------|----------------|--------------------|

 

E :0---0---0---0---|2---2---2---2---|2-----2---2---2-----|

B :2---2---2---2---|2---2---2---2---|3-----3---3---3-----|

G :2---2---2---2---|2---2---2---2---|4-----4---4---4-----|

D :2---2---2---2---|0---0---0---0---|4-----4---4---4-----|

A :0---0---0---0---|----------------|2-----2---2---2-----|

E :----------------|----------------|--------------------|

 

G :----------------|----------------|--------------------|

D :----------------|----------------|--------------------|

A :----------------|5---5---4-4-4-0-|2-----2---2-2-2--0--|

E :5---5---5-5-5-0-|----------------|--------------------|

 

49 :0---8---6---8---|6---8---6---8---|6-----8---6---8-----|

42 :----------------|----------------|--------------------|

38 :----0-------0---|----0-------0---|------0-------0-----|

38 :----0-------0---|----0-------0---|------0-------0-----|

35 :0-------0-0-----|0-------0-0-----|0---------0-0-------|

35 :0-------0-0-----|0-------0-0-----|0---------0-0-------|

 

E :----------------|----------------|--------------------|

B :----*-----------|----------------|----------------(0)-|

G :----*---4-6---7-|--6---4---6-2-4-|--2---------2-1--1--|

D :----------------|----------------|----4---------------|

A :----------------|----------------|--------------------|

E :----------------|----------------|--------------------|

 

=============================================================================

 

E :--------------------------|----------------|----------------|

B :--------------------------|----------------|----------------|

G :--------------------------|--------4-6---7-|--6---4---6-2-4-|

D :*-------------------------|----------------|----------------|

A :--------------------------|----------------|----------------|

E :--------------------------|----------------|----------------|

 

E :0-----0-----0------0------|0---0---0---0---|2---2---2---2---|

B :0-----0-----0------0------|2---2---2---2---|2---2---2---2---|

G :1-----1-----1------1------|2---2---2---2---|2---2---2---2---|

D :2-----2-----2------2------|2---2---2---2---|0---0---0---0---|

A :2-----2-----2------2------|0---0---0---0---|----------------|

E :0-----0-----0------0------|----------------|----------------|

 

G :--------------------------|----------------|----------------|

D :--------------------------|----------------|----------------|

A :7-----7-----7--7---7------|----------------|5---5---4-4-4-0-|

E :-----------------------4--|5---5---5-5-5-0-|----------------|

 

49 :6-----8-----6------8------|6---8---6---8---|6---8---6---8---|

42 :--------------------------|----------------|----------------|

38 :------0------------0------|----0-------0---|----0-------0---|

38 :------0------------0------|----0-------0---|----0-------0---|

35 :0-----------0--0----------|0-------0-0-----|0-------0-0-----|

35 :0-----------0--0----------|0-------0-0-----|0-------0-0-----|

 

E :--------------------------|----------------|----------------|

B :--(0)---(2)---(3)-(5)-(5)-|----*-----------|----------------|

G :---1-----2-----4---6---6--|----*---4-6---7-|--6---4---6-2-4-|

D :--------------------------|----------------|----------------|

A :--------------------------|----------------|----------------|

E :--------------------------|----------------|----------------|

 

=============================================================================

 

E :--------------------|------------------------------|----------------|

B :--------------------|------------------------------|----------------|

G :--2-----------------|------------------------------|----------------|

D :----4---------------|-*----------------------------|----------------|

A :--------------------|------------------------------|----------------|

E :--------------------|------------------------------|----------------|

 

E :2-----2---2---2-----|-0-------0------0------0------|0---------------|

B :3-----3---3---3-----|-0-------0------0------0------|2---------------|

G :4-----4---4---4-----|-1-------1------1------1------|2---------------|

D :4-----4---4---4-----|-2-------2------2------2------|2---------------|

A :2-----2---2---2-----|-2-------2------2------2------|0---------------|

E :--------------------|-0-------0------0------0------|----------------|

 

G :--------------------|------------------------------|----------------|

D :--------------------|------------------------------|----------------|

A :2-----2---2-2-2--0--|-7-------7------7--7---7------|0---------------|

E :--------------------|------------------------------|----------------|

 

49 :0-------------------|------------------------------|0---------------|

42 :--------------------|------------------------------|----------------|

38 :--------------------|------------------------------|----------------|

38 :--------------------|(0)-(0)-(0)-(0)-0--0---0---0--|----------------|

35 :0-0---0-0-0-0-0--0--|-0---0---0---0--0--0---0---0--|0---------------|

35 :0-0---0-0-0-0-0--0--|-0---0---0---0--0--0---0---0--|0---------------|

 

E :--------------------|------------------------------|----------------|

B :----------------(0)-|----(0)-----(2)---(3)-(5)-(5)-|--------------*-|

G :--2---------2-1--1--|-----1-------2-----4---6---6--|--------------*-|

D :----4---------------|------------------------------|----------------|

A :--------------------|------------------------------|----------------|

E :--------------------|------------------------------|----------------|

 

 

Return to my to my Weezer tabs page

The Tablature is Copyright its respective owners.

Sign Up For My Newsletter
Subscribe | Unsubscribe

Site Map | Disclaimer | Privacy Policy | Media Kit | Submissions/Corrections

Website © 2000-2014 mattsmusicpage.com. All rights reserved.

Legal & DMCA: Matt's Music Page has been providing lyrics and tabs in a legal way, paying royalties each year to a few organizations. Then, all lyrics and tabs were removed from the site. Now, there's a new owner to the site, which purchased it August 26, 2014, and he is in negotiation to obtain licensing from BMI at the moment. If you have a specific DMCA request -- please do not hesitate to contact me via the contact button on top. I will do my very best to keep this site fully legal.

Get our toolbar!

 

Starbucks You Are Here Coffee Mug/Cup KENTUCKY - Horses, Banjo, Blue, White
$19.99
Starbucks You Are Here Coffee Mug/Cup KENTUCKY - Horses, Banjo, Blue, White picture


KNOWLES ROCKWELL HERITAGE "THE BANJO PLAYER" FIRST EDITION 1989 PLATE COA
$5.99
KNOWLES ROCKWELL HERITAGE


Vintage Postcard 1981 Disney World Banjo Kings Main Street USA 1981 Postmark
$4.99
 Vintage Postcard 1981 Disney World Banjo Kings Main Street USA 1981 Postmark picture


Banjo Barometer With Thermometer Hygrometer 490mm
$84.76
Banjo Barometer With Thermometer Hygrometer 490mm picture


ANTIQUE JAPANESE NIPPON FIGURINE SET OF 3 WOMEN GEISHA PLAYING DRUM BANJO FAN
$24.0
ANTIQUE JAPANESE NIPPON FIGURINE SET OF 3 WOMEN GEISHA PLAYING DRUM BANJO FAN picture