Your One-Stop Source For
Music Lyrics
Bass and Guitar Tabs
and More...
Music Lyrics Bass and Guitar Tabs

 

The Tabs Are Below

Learn To Read Tab
Chords Handbook
Corrections & Additions
Get Official Tab
Weezer tabs @ 911Tabs

 

Weezer

My Name is Jonas

1/2 Step Down

 

 

1)My Name is Jonas

 

INTRO

C Em7

------------------------0------

---1------1-------0-------0----

-----0------0-------0-------0--

-------2--------------0--------

-3-------------2---------------

-------------------------------

 

C G A

My name is Jonas

F C

I'm carrying the wheel

C G A

Thanks for all you've shown us

F C G A F

But this is how we feel

C G

Come sit next to me

A F

Pour yourself some tea

 

Just like grandma made

When we couldn't find sleep

Things were better then

Once but never again

We've all left the den

Let me tell you 'bout it

 

 

C A G

The choo-choo train left right on time

C A G

A ticket cost only your mind

C A G

The driver said "hey man we go all the way"

C A G

Of course we were willing to pay

 

My name is Wepeel

I gotta box full of your toys

They're fresh out of batteries

But they're still makin' noise

 

Tell me what to do

Now the tank is dry

Now this wheel is flat

and you know what else?

 

Guess what I received

in the mail today

Words of deep concern

from my little brother

 

The building's not going as it's planned

The foreman has injured his hand

The dozer will not clear a path

The driver swears he learned his math

 

The worker's are going home

C

 

Solo: (I don't think is right)

C A G

-----------------------------------------------------------------------

---13-------13-------10-----10-----8-----8-----8-----8-----------------

------12-------12-------9------9-----7-----7-----7-----7---------------

-10------10--------7------7------5-----5-----5-----5-------------------

-----------------------------------------------------------------------

-----------------------------------------------------------------------

 

C A G C

-----------------------------------------------------------------------

---13------13-------10-----10-------15--------15---------13-------13---

------12------12-------9------9--------14--------14---------12------12-

10-------10-------7------7------12---------12--------10--------10------

-----------------------------------------------------------------------

-----------------------------------------------------------------------

 

 

A G

----15-----15-----19----19----20-----20--------------------------------

-15-----15-----19----19----20-----20-----------------------------------

-----------------------------------------------------------------------

-----------------------------------------------------------------------

-----------------------------------------------------------------------

-----------------------------------------------------------------------

 

End part

E F G E F G then intro

 

 

 

 

Tabbed by TNitz303@aol.com

 

 

Return to my to my Weezer tabs page

The Tablature is Copyright its respective owners.

Sign Up For My Newsletter
Subscribe | Unsubscribe

Site Map | Disclaimer | Privacy Policy | Media Kit | Submissions/Corrections

Website © 2000-2014 mattsmusicpage.com. All rights reserved.

Legal & DMCA: Matt's Music Page has been providing lyrics and tabs in a legal way, paying royalties each year to a few organizations. Then, all lyrics and tabs were removed from the site. Now, there's a new owner to the site, which purchased it August 26, 2014, and he is in negotiation to obtain licensing from BMI at the moment. If you have a specific DMCA request -- please do not hesitate to contact me via the contact button on top. I will do my very best to keep this site fully legal.

Get our toolbar!