Your One-Stop Source For
Music Lyrics
Bass and Guitar Tabs
and More...
Music Lyrics Bass and Guitar Tabs

 

The Tabs Are Below

Learn To Read Tab
Chords Handbook
Corrections & Additions
Get Official Tab
Weezer tabs @ 911Tabs

WEEZER - KEEP FISHIN

 

 

This is the first guitar, it's the whole song in full, just play this and all notes and you got the song for the first guitar

|-----------------|-------------|-----------------|--------------|

|-----------------|-------------|-----------------|--------------|

|-4--4--4----4----|-5--5--5--5--|-4--4--4----4----|-5--5--5--5---|

|-5--5--5----5----|-5--5--5--5--|-5--5--5----5----|-5--5--5--5---|

|-5--5--5----5----|-3--3--3--3--|-5--5--5----5----|-3--3--3--3---|

|-3--3--3--0-3--0-|-3--3--3--3--|-3--3--3--0-3--0-|-3--3--3--3---|

 

 

|-------------|-------------|-------------|--------------|

|-------------|-------------|-------------|--------------|

|-4--4--4--4--|-5--5--5--5--|-4--4--4--4--|-5--5--5--5---|

|-5--5--5--5--|-5--5--5--5--|-5--5--5--5--|-5--5--5--5---|

|-5--5--5--5--|-3--3--3--3--|-5--5--5--5--|-3--3--3--3---|

|-3--3--3--3--|-3--3--3--3--|-3--3--3--3--|-3--3--3--3---|

 

 

|-------------|-------------|-------------|--------------|

|-------------|-------------|-------------|--------------|

|-4--4--4--4--|-5--5--5--5--|-4--4--4--4--|-5--5--5--5---|

|-5--5--5--5--|-5--5--5--5--|-5--5--5--5--|-5--5--5--5---|

|-5--5--5--5--|-3--3--3--3--|-5--5--5--5--|-3--3--3--3---|

|-3--3--3--3--|-3--3--3--3--|-3--3--3--3--|-3--3--3--3---|

 

 

|-------------|-------------|-------------|--------------|

|-------------|-3--3--3--3--|-------------|-3--3--3--3---|

|-2--2--2--2--|-2--2--2--2--|-2--2--2--2--|-2--2--2--2---|

|-2--2--2--2--|-0--0--0--0--|-2--2--2--2--|-0--0--0--0---|

|-0--0--0--0--|-0--0--0--0--|-0--0--0--0--|-0--0--0--0---|

|-------------|-------------|-------------|--------------|

 

 

|---------------|---------------|-2--2-2-2-2-3--|-2--2-2-2-2-2-2--|

|---------------|---------------|-3--3-3-3-3-3--|-3--3-3-3-3-3-3--|

|---------------|-5--5-5-2--2-2-|-2--2-2-2-2-2--|-2--2-2-2-2-2-2--|

|-5--5-5-2--2-2-|-5--5-5-2--2-2-|-0--0-0-0-0-0--|-0--0-0-0-0-0-0--|

|-5--5-5-2--2-2-|-3--3-3-0--0-0-|---------------|-----------------|

|-3--3-3-0--0-0-|---------------|---------------|-----------------|

 

 

|---------------|---------------|-2--2-2-2-2-3--|-2--2-2-2-2-2-2--|

|---------------|---------------|-3--3-3-3-3-3--|-3--3-3-3-3-3-3--|

|---------------|-5--5-5-2--2-2-|-2--2-2-2-2-2--|-2--2-2-2-2-2-2--|

|-5--5-5-2--2-2-|-5--5-5-2--2-2-|-0--0-0-0-0-0--|-0--0-0-0-0-0-0--|

|-5--5-5-2--2-2-|-3--3-3-0--0-0-|---------------|-----------------|

|-3--3-3-0--0-0-|---------------|---------------|-----------------|

 

 

|-------------|-------------|-------------|--------------|

|-------------|-------------|-------------|--------------|

|-4--4--4--4--|-5--5--5--5--|-4--4--4--4--|-5--5--5--5---|

|-5--5--5--5--|-5--5--5--5--|-5--5--5--5--|-5--5--5--5---|

|-5--5--5--5--|-3--3--3--3--|-5--5--5--5--|-3--3--3--3---|

|-3--3--3--3--|-3--3--3--3--|-3--3--3--3--|-3--3--3--3---|

 

 

|-------------|-------------|-------------|--------------|

|-------------|-3--3--3--3--|-------------|-3--3--3--3---|

|-2--2--2--2--|-2--2--2--2--|-2--2--2--2--|-2--2--2--2---|

|-2--2--2--2--|-0--0--0--0--|-2--2--2--2--|-0--0--0--0---|

|-0--0--0--0--|-0--0--0--0--|-0--0--0--0--|-0--0--0--0---|

|-------------|-------------|-------------|--------------|

 

 

|---------------|---------------|-2--2-2-2-2-3--|-2--2-2-2-2-2-2--|

|---------------|---------------|-3--3-3-3-3-3--|-3--3-3-3-3-3-3--|

|---------------|-5--5-5-2--2-2-|-2--2-2-2-2-2--|-2--2-2-2-2-2-2--|

|-5--5-5-2--2-2-|-5--5-5-2--2-2-|-0--0-0-0-0-0--|-0--0-0-0-0-0-0--|

|-5--5-5-2--2-2-|-3--3-3-0--0-0-|---------------|-----------------|

|-3--3-3-0--0-0-|---------------|---------------|-----------------|

 

 

|---------------|---------------|-2--2-2-2-2-3--|-2--2-2-2-2-2-2--|

|---------------|---------------|-3--3-3-3-3-3--|-3--3-3-3-3-3-3--|

|---------------|-5--5-5-2--2-2-|-2--2-2-2-2-2--|-2--2-2-2-2-2-2--|

|-5--5-5-2--2-2-|-5--5-5-2--2-2-|-0--0-0-0-0-0--|-0--0-0-0-0-0-0--|

|-5--5-5-2--2-2-|-3--3-3-0--0-0-|---------------|-----------------|

|-3--3-3-0--0-0-|---------------|---------------|-----------------|

 

 

|-----------------|-----------------|-----------------|------------------|

|-----------------|-----------------|-----------------|------------------|

|-5-5-5-5-5-5-5-5-|-----------------|-5-5-5-5-5-5-5-5-|------------------|

|-5-5-5-5-5-5-5-5-|-5-5-5-5-5-5-5-5-|-5-5-5-5-5-5-5-5-|-5-5-5-5-5-5-5-5--|

|-3-3-3-3-3-3-3-3-|-5-5-5-5-5-5-5-5-|-3-3-3-3-3-3-3-3-|-5-5-5-5-5-5-5-5--|

|-3-3-3-3-3-3-3-3-|-3-3-3-3-3-3-3-3-|-3-3-3-3-3-3-3-3-|-3-3-3-3-3-3-3-3--|

 

 

|-----------------|-----------------|-----------------|-2-2-2-2-2-2-3-3--|

|-----------------|-----------------|-----------------|-3-3-3-3-3-3-3-3--|

|-5-5-5-5-5-5-5-5-|-----------------|-5-5-5-5-2-2-2-2-|-2-2-2-2-2-2-2-2--|

|-5-5-5-5-5-5-5-5-|-5-5-5-5-2-2-2-2-|-5-5-5-5-2-2-2-2-|-0-0-0-0-0-0-0-0--|

|-3-3-3-3-3-3-3-3-|-5-5-5-5-2-2-2-2-|-3-3-3-3-0-0-0-0-|------------------|

|-3-3-3-3-3-3-3-3-|-3-3-3-3-0-0-0-0-|-----------------|------------------|

 

 

|-2-2-2-2-2-2-2-2-|-------------|-------------|--------------|

|-3-3-3-3-3-3-3-3-|-------------|-------------|--------------|

|-2-2-2-2-2-2-2-2-|-4--4--4--4--|-5--5--5--5--|-4--4--4--4---|

|-0-0-0-0-0-0-0-0-|-5--5--5--5--|-5--5--5--5--|-5--5--5--5---|

|-----------------|-5--5--5--5--|-3--3--3--3--|-5--5--5--5---|

|-----------------|-3--3--3--3--|-3--3--3--3--|-3--3--3--3---|

 

 

|-------------|-------------|-------------|--------------|

|-------------|-------------|-3--3--3--3--|--------------|

|-5--5--5--5--|-2--2--2--2--|-2--2--2--2--|-2--2--2--2---|

|-5--5--5--5--|-2--2--2--2--|-0--0--0--0--|-2--2--2--2---|

|-3--3--3--3--|-0--0--0--0--|-0--0--0--0--|-0--0--0--0---|

|-3--3--3--3--|-------------|-------------|--------------|

 

 

|-------------|---------------|---------------|-2--2-2-2-2-3--|

|-3--3--3--3--|---------------|---------------|-3--3-3-3-3-3--|

|-2--2--2--2--|---------------|-5--5-5-2--2-2-|-2--2-2-2-2-2--|

|-0--0--0--0--|-5--5-5-2--2-2-|-5--5-5-2--2-2-|-0--0-0-0-0-0--|

|-0--0--0--0--|-5--5-5-2--2-2-|-3--3-3-0--0-0-|---------------|

|-------------|-3--3-3-0--0-0-|---------------|---------------|

 

 

|-2--2-2-2-2-2-2-|---------------|---------------|-2--2-2-2-2-3--|

|-3--3-3-3-3-3-3-|---------------|---------------|-3--3-3-3-3-3--|

|-2--2-2-2-2-2-2-|---------------|-5--5-5-2--2-2-|-2--2-2-2-2-2--|

|-0--0-0-0-0-0-0-|-5--5-5-2--2-2-|-5--5-5-2--2-2-|-0--0-0-0-0-0--|

|----------------|-5--5-5-2--2-2-|-3--3-3-0--0-0-|---------------|

|----------------|-3--3-3-0--0-0-|---------------|---------------|

 

 

|-2--2-2-2-2-2-2-|-----------------|-----------------|------------------|

|-3--3-3-3-3-3-3-|-----------------|-----------------|------------------|

|-2--2-2-2-2-2-2-|-5-5-5-5-5-5-5-5-|-----------------|-5-5-5-5-5-5-5-5--|

|-0--0-0-0-0-0-0-|-5-5-5-5-5-5-5-5-|-5-5-5-5-5-5-5-5-|-5-5-5-5-5-5-5-5--|

|----------------|-3-3-3-3-3-3-3-3-|-5-5-5-5-5-5-5-5-|-3-3-3-3-3-3-3-3--|

|----------------|-3-3-3-3-3-3-3-3-|-3-3-3-3-3-3-3-3-|-3-3-3-3-3-3-3-3--|

 

 

|-----------------|-----------------|-----------------|------------------|

|-----------------|-----------------|-----------------|------------------|

|-----------------|-5-5-5-5-5-5-5-5-|-----------------|-5-5-5-5-2-2-2-2--|

|-5-5-5-5-5-5-5-5-|-5-5-5-5-5-5-5-5-|-5-5-5-5-2-2-2-2-|-5-5-5-5-2-2-2-2--|

|-5-5-5-5-5-5-5-5-|-3-3-3-3-3-3-3-3-|-5-5-5-5-2-2-2-2-|-3-3-3-3-0-0-0-0--|

|-3-3-3-3-3-3-3-3-|-3-3-3-3-3-3-3-3-|-3-3-3-3-0-0-0-0-|------------------|

 

 

|-2-2-2-2-2-2-3-3-|-2-2-2-2-2-2-2-2-|-------------|--------------|

|-3-3-3-3-3-3-3-3-|-3-3-3-3-3-3-3-3-|-------------|--------------|

|-2-2-2-2-2-2-2-2-|-2-2-2-2-2-2-2-2-|-4--4--4--4--|-5--5--5--5---|

|-0-0-0-0-0-0-0-0-|-0-0-0-0-0-0-0-0-|-5--5--5--5--|-5--5--5--5---|

|-----------------|-----------------|-5--5--5--5--|-3--3--3--3---|

|-----------------|-----------------|-3--3--3--3--|-3--3--3--3---|

 

 

|-------------|-------------|-------------|--------------|

|-------------|-------------|-------------|--------------|

|-4--4--4--4--|-5--5--5--5--|-4--4--4--4--|-5--5--5--5---|

|-5--5--5--5--|-5--5--5--5--|-5--5--5--5--|-5--5--5--5---|

|-5--5--5--5--|-3--3--3--3--|-5--5--5--5--|-3--3--3--3---|

|-3--3--3--3--|-3--3--3--3--|-3--3--3--3--|-3--3--3--3---|

 

 

|-------------|-------------|----------|------*|

|-------------|-------------|----------|------*|

|-4--4--4--4--|-5--5--5--5--|-4--------|-(4)--*|

|-5--5--5--5--|-5--5--5--5--|-5--------|-(5)--*|

|-5--5--5--5--|-3--3--3--3--|-5--------|-(5)--*|

|-3--3--3--3--|-3--3--3--3--|-3--------|-(3)--*|

 

 

 

Play this on top of the first guitar when it fits

 

|--------------------------------------|

|--------------------------------------|

|--------------0-----0-------0--2------|

|------0-0-0-2----------0-0------------|

|--------------------------------------|

|--------------------------------------|

 

 

 

 

 

SOLO

 

 

 

|----------------|----------------------|-----------------------|

|----------------|----------------------|-----------------------|

|--------------0-|-(0)----(0)-----0-2-4-|-(4)----(4)------------|

|------0-0-0-2---|------------0-0-------|--------------------5--|

|----------------|----------------------|------------5-5-5-7----|

|----------------|----------------------|-----------------------|

 

 

|----------------------|----------*|

|----------------------|----------*|

|----------------------|----------*|

|-(5)----(5)-----5-7-9-|-(9)------*|

|------------5-5-------|----------*|

|----------------------|----------*|

 

 

 

 

This is the vocals arranged for guitar... believe me it's fun to play

 

|---------|---------|---------|----------------|

|---------|---------|---------|----------------|

|---------|---------|---------|-------------0--|

|---------|---------|---------|-------0-0-2----|

|---------|---------|---------|----------------|

|---------|---------|---------|----------------|

 

 

|------------------|------------------|-------------------|

|------------------|------------------|-------------------|

|-(0)----------0-4-|-(4)--------------|----------------4--|

|----------0-0-----|----------------5-|-(5)----------5----|

|------------------|----------5-5-7---|----------5-5------|

|------------------|------------------|-------------------|

 

 

|--------------|--------------|--------------|--------------|

|--------------|--------5--3--|-3-1----------|--------5--3--|

|-(4)----4--2--|-2-0----------|-----2--4--2--|-2-0----------|

|--------------|-----2--------|--------------|-----2--------|

|--------------|--------------|--------------|--------------|

|--------------|--------------|--------------|--------------|

 

 

|---------------|-------------|-------------|--------|

|-3-1-----------|-------------|-------------|--------|

|-----2-2-4--2--|-2---0-0-----|-0-----0-----|--------|

|---------------|-----------2-|-----2-----2-|-4------|

|---------------|-------------|-------------|--------|

|---------------|-------------|-------------|--------|

 

 

|-------------|-------------|-------------|--------|

|-------------|-------------|-------------|--------|

|-----2-4--2--|-2---0-0-----|-0-----0-----|--------|

|-------------|-----------2-|-----2-----2-|-4------|

|-------------|-------------|-------------|--------|

|-------------|-------------|-------------|--------|

 

 

|---------------|------------------|-------------------|

|---------------|------------------|-------------------|

|---------------|----------------4-|-(4)---------------|

|-------------5-|-(5)----------5---|----------------5--|

|-------5-5-7---|----------5-5-----|----------5-5-7----|

|---------------|------------------|-------------------|

 

 

|------------------|--------------|--------------|--------------|

|------------------|--------------|--------5--3--|-3-1----------|

|----------------4-|-(4)----4--2--|-2-0----------|-----2--4--2--|

|-(5)----------5---|--------------|-----2--------|--------------|

|----------5-5-----|--------------|--------------|--------------|

|------------------|--------------|--------------|--------------|

 

 

|--------------|---------------|-------------|--------------|

|--------5--3--|-3-1-----------|-------------|--------------|

|-2-0----------|-----2-2-4--2--|-2---0-0-----|-0-----0------|

|-----2--------|---------------|-----------2-|-----2-----2--|

|--------------|---------------|-------------|--------------|

|--------------|---------------|-------------|--------------|

 

 

|----------|-------------|-------------|--------------|

|----------|-------------|-------------|--------------|

|----------|-----2-4--2--|-2---0-0-----|-0-----0------|

|-4--------|-------------|-----------2-|-----2-----2--|

|----------|-------------|-------------|--------------|

|----------|-------------|-------------|--------------|

 

 

|----------|---------|--------------|-------------|

|----------|---------|---5--3-1-0---|----------5--|

|----------|---------|------------2-|-2---0-0-----|

|-4--------|---------|--------------|-------------|

|----------|---------|--------------|-------------|

|----------|---------|--------------|-------------|

 

 

|---------------|-------------|---------------|--------------|

|-3--5--3-1-0---|----------5--|-3--5--3-1-0---|--------------|

|-------------2-|-2---4-4-----|-------------2-|-2---0-0------|

|---------------|-------------|---------------|-----------2--|

|---------------|-------------|---------------|--------------|

|---------------|-------------|---------------|--------------|

 

 

|-------------|----------|---------|---|

|-------------|----------|---------|---|

|-0-----0-----|----------|---------|---|

|-----2-----2-|-4--------|---------|---|

|-------------|----------|---------|---|

|-------------|----------|---------|---|

 

 

|---------|---------|-----------|--------------|

|---------|---------|-----------|--------5--3--|

|---------|---------|-----4--2--|-2-0----------|

|---------|---------|-----------|-----2--------|

|---------|---------|-----------|--------------|

|---------|---------|-----------|--------------|

 

 

|--------------|--------------|---------------|--------------|

|-3-1----------|--------5--3--|-3-1-----------|--------------|

|-----2--4--2--|-2-0----------|-----2-2-4--2--|-2---0-0------|

|--------------|-----2--------|---------------|-----------2--|

|--------------|--------------|---------------|--------------|

|--------------|--------------|---------------|--------------|

 

 

|-------------|----------|-------------|--------------|

|-------------|----------|-------------|--------------|

|-0-----0-----|----------|-----2-4--2--|-2---0-0------|

|-----2-----2-|-4--------|-------------|-----------2--|

|-------------|----------|-------------|--------------|

|-------------|----------|-------------|--------------|

 

 

|-------------|----------|---------|---------------|

|-------------|----------|---------|---5--3-1-0----|

|-0-----0-----|----------|---------|------------2--|

|-----2-----2-|-4--------|---------|---------------|

|-------------|----------|---------|---------------|

|-------------|----------|---------|---------------|

 

 

|-------------|---------------|-------------|----------------|

|----------5--|-3--5--3-1-0---|----------5--|-3--5--3-1-0----|

|-2---0-0-----|-------------2-|-2---4-4-----|-------------2--|

|-------------|---------------|-------------|----------------|

|-------------|---------------|-------------|----------------|

|-------------|---------------|-------------|----------------|

 

 

|-------------|-------------|----------|----------------|

|-------------|-------------|----------|----------------|

|-2---0-0-----|-0-----0-----|----------|----------------|

|-----------2-|-----2-----2-|-4--------|-------------5--|

|-------------|-------------|----------|-------5-5-7----|

|-------------|-------------|----------|----------------|

 

 

|------------------|------------------|-------------------|

|------------------|------------------|-------------------|

|----------------4-|-(4)--------------|----------------4--|

|-(5)----------5---|----------------5-|-(5)----------5----|

|----------5-5-----|----------5-5-7---|----------5-5------|

|------------------|------------------|-------------------|

 

 

|------------------|------------------|----------------------|

|------------------|------------------|----------------------|

|-(4)------4-4-5-4-|-(4)------4-4-5-4-|-(4)---4-(4)-4-4-5-4--|

|------------------|------------------|----------------------|

|------------------|------------------|----------------------|

|------------------|------------------|----------------------|

 

 

|------------------|----------------*|

|------------------|----------------*|

|-(4)------4-4-5-4-|-(4)---4-(4)----*|

|------------------|----------------*|

|------------------|----------------*|

|------------------|----------------*|

 

 

 

 

 

 

--------------------------------------------------------------------------------

Legend

------

 

h = hammer-on | = bar

p = pull-off || = double bar

b = bend ||* = repeat start

r = bend release *|| = repeat end

/ = slide up/down *| = double bar (end)

[5] = nat. harmonic ! = repeat beat (¼,8th)

<5> = art. harmonic !! = repeat beat (16th)

~ = vibrato % = repeat measure

tr = trill : = bar (freetime)

T = tap du = tremolo bar dip

TP = trem. picking d = tremolo bar down

PM = palm muting u = tremolo bar up

S = slap ud = tremolo bar inverted dip

P = pop = = hold (bend or tremolo bar)

--------------------------------------------------------------------------------

 

Return to my to my Weezer tabs page

The Tablature is Copyright its respective owners.

Sign Up For My Newsletter
Subscribe | Unsubscribe

Site Map | Disclaimer | Privacy Policy | Media Kit | Submissions/Corrections

Website © 2000-2014 mattsmusicpage.com. All rights reserved.

Legal & DMCA: Matt's Music Page has been providing lyrics and tabs in a legal way, paying royalties each year to a few organizations. Then, all lyrics and tabs were removed from the site. Now, there's a new owner to the site, which purchased it August 26, 2014, and he is in negotiation to obtain licensing from BMI at the moment. If you have a specific DMCA request -- please do not hesitate to contact me via the contact button on top. I will do my very best to keep this site fully legal.

Get our toolbar!