Your One-Stop Source For
Music Lyrics
Bass and Guitar Tabs
and More...
Music Lyrics Bass and Guitar Tabs

 

The Tabs Are Below

Learn To Read Tab
Chords Handbook
Corrections & Additions
Get Official Tab
Weezer tabs @ 911Tabs

Island In the Sun

Tabbed by: SJD285@aol.com

 

[This was created with TabIt for Windows version 1.53]

 

E :------5-5---x-2-|--2-x-3-3---3-*-|------5-5---x-2-|

B :8---8-5-5---x-3-|--3-x-3-3---3-*-|8---8-5-5---x-3-|

G :9---9-*-5---x-2-|--2-x-4-4---4-*-|9---9-*-5---x-2-|

D :9---9-*-7---x-0-|--0-x-5-5---5-*-|9---9-*-7---x-0-|

A :7---7-*-*-------|----------------|7---7-*-*-------|

E :----------------|----------------|----------------|

 

E :----------------|----------------|----------------|

B :----------------|----------------|----------------|

G :----------------|----------------|----------------|

D :----------------|----------------|----------------|

A :----------------|----------------|----------------|

E :----------------|----------------|----------------|

 

G :----------------|----------------|----------------|

D :----------------|----------------|----------------|

A :----------------|----------------|----------------|

E :----------------|----------------|----------------|

 

E :----------------|----------------|----------------|

B :----------------|----------------|----------------|

G :----------------|----------------|----------------|

D :----------------|----------------|----------------|

A :----------------|----------------|----------------|

E :----------------|----------------|----------------|

 

=============================================================================

 

E :----2-x-3-3------3-*-|------5-5---x-2-|2-2-x-3-3----3-*-|

B :----3-x-3-3------3-*-|8---8-5-5---x-3-|3-3-x-3-3----3-*-|

G :----2-x-4-4------4-*-|9---9-*-5---x-2-|2-2-x-4-4----4-*-|

D :----0-x-5-5------5-*-|9---9-*-7---x-0-|0-0-x-5-5----5-*-|

A :---------------------|7---7-*-*-------|-----------------|

E :---------------------|----------------|-----------------|

 

E :---------------------|----------------|-----------------|

B :---------------------|----------------|-----------------|

G :---------------------|----------------|-----------------|

D :---------------------|----------------|-----------------|

A :---------------------|----------------|-----------------|

E :---------------------|----------------|-----------------|

 

G :---------------------|----------------|-----------------|

D :------------/12-\9-0-|----------------|-----------------|

A :---------------------|7---7-0-0---0---|5---5-0--------5-|

E :--/10-*--------------|--------------0-|--------3-3-/7---|

 

E :---------------------|----------------|-----------------|

B :---------------------|----------------|-----------------|

G :---------------------|----------------|-----------------|

D :---------------------|----------------|-----------------|

A :---------------------|----------------|-----------------|

E :---------------------|----------------|-----------------|

 

=============================================================================

 

E :------5-5---x-2-|--2-x-3-3----3-*-|------5-5---x-2-|

B :8---8-5-5---x-3-|--3-x-3-3----3-*-|8---8-5-5---x-3-|

G :9---9-*-5---x-2-|--2-x-4-4----4-*-|9---9-*-5---x-2-|

D :9---9-*-7---x-0-|--0-x-5-5----5-*-|9---9-*-7---x-0-|

A :7---7-*-*-------|-----------------|7---7-*-*-------|

E :----------------|-----------------|----------------|

 

E :----------------|-----------------|----------------|

B :----------------|-----------------|----------------|

G :----------------|-----------------|----------------|

D :----------------|-----------------|----------------|

A :----------------|-----------------|----------------|

E :----------------|-----------------|----------------|

 

G :----------------|-----------------|----------------|

D :----------------|-----------------|----------------|

A :7---7-0-0-----5-|--5-0----------5-|7---7-0-0---0---|

E :------------0---|------3---3-/7---|--------------0-|

 

E :----------------|-----------------|----------------|

B :----------------|-----------------|----------------|

G :----------------|-----------------|----------------|

D :----------------|-----------------|----------------|

A :----------------|-----------------|----------------|

E :----------------|-----------------|----------------|

 

=============================================================================

 

E :2-2-x-3-3----3-*-|------5-5---x-2-|--2-x-3-3----3-*-|

B :3-3-x-3-3----3-*-|8---8-5-5---x-3-|--3-x-3-3----3-*-|

G :2-2-x-4-4----4-*-|9---9-*-5---x-2-|--2-x-4-4----4-*-|

D :0-0-x-5-5----5-*-|9---9-*-7---x-0-|--0-x-5-5----5-*-|

A :-----------------|7---7-*-*-------|-----------------|

E :-----------------|----------------|-----------------|

 

E :-----------------|----------------|-----------------|

B :-----------------|----------------|-----------------|

G :-----------------|----------------|-----------------|

D :-----------------|----------------|-----------------|

A :-----------------|----------------|-----------------|

E :-----------------|----------------|-----------------|

 

G :-----------------|----------------|-----------------|

D :-----------------|----------------|-----------------|

A :5---5-0--------5-|7---7-0-0-----5-|--5-0----------5-|

E :--------3-3-/7---|------------0---|------3---3-/7---|

 

E :-----------------|----------------|-----------------|

B :-----------------|----------------|-----------------|

G :-----------------|----------------|-----------------|

D :-----------------|----------------|-----------------|

A :-----------------|----------------|-----------------|

E :-----------------|----------------|-----------------|

 

=============================================================================

 

E :------5-5---x-2-|2-2-x-3-3----3-*-|------5-5---x-2-|

B :8---8-5-5---x-3-|3-3-x-3-3----3-*-|8---8-5-5---x-3-|

G :9---9-*-5---x-2-|2-2-x-4-4----4-*-|9---9-*-5---x-2-|

D :9---9-*-7---x-0-|0-0-x-5-5----5-*-|9---9-*-7---x-0-|

A :7---7-*-*-------|-----------------|7---7-*-*-------|

E :----------------|-----------------|----------------|

 

E :----------------|-----------------|----------------|

B :----------------|-----------------|----------------|

G :----------------|-----------------|----------------|

D :----------------|-----------------|----------------|

A :----------------|-----------------|----------------|

E :----------------|-----------------|----------------|

 

G :----------------|-----------------|----------------|

D :----------------|-----------------|----------------|

A :7---7-0-0---0---|5---5-0--------5-|7---7-0-0-----5-|

E :--------------0-|--------3-3-/7---|------------0---|

 

E :----------------|-----------------|----------------|

B :----------------|-----------------|----------------|

G :----------------|-----------------|----------------|

D :----------------|-----------------|----------------|

A :----------------|-----------------|----------------|

E :----------------|-----------------|----------------|

 

=============================================================================

 

E :--2-x-3-3----3-*-|*-3---3---3---3-|*-2---2-*-3----3-|

B :--3-x-3-3----3-*-|5---5---5---5---|3---3---3----3---|

G :--2-x-4-4----4-*-|----------------|-----------------|

D :--0-x-5-5----5-*-|----------------|-----------------|

A :-----------------|----------------|-----------------|

E :-----------------|----------------|-----------------|

 

E :-----------------|*-3---3---3---3-|*-2---2-*-3----3-|

B :-----------------|5---5---5---5---|3---3---3----3---|

G :-----------------|----------------|-----------------|

D :-----------------|----------------|-----------------|

A :-----------------|----------------|-----------------|

E :-----------------|----------------|-----------------|

 

G :-----------------|----------------|-----------------|

D :-----------------|----------------|-----------------|

A :--5-0----------5-|7---7-0-0---0---|5---5-0--------5-|

E :------3---3-/7---|--------------0-|--------3-3-/7---|

 

E :-----------------|----------------|-----------------|

B :-----------------|----------------|-----------------|

G :-----------------|----------------|-----------------|

D :-----------------|----------------|-----------------|

A :-----------------|----------------|-----------------|

E :-----------------|----------------|-----------------|

 

=============================================================================

 

E :*-3---3---3---3-|*-2---2-*-3----3-|*-3---3---3---3-|

B :5---5---5---5---|3---3---3----3---|5---5---5---5---|

G :----------------|-----------------|----------------|

D :----------------|-----------------|----------------|

A :----------------|-----------------|----------------|

E :----------------|-----------------|----------------|

 

E :*-3---3---3---3-|*-2---2-*-3----3-|*-3---3---3---3-|

B :5---5---5---5---|3---3---3----3---|5---5---5---5---|

G :----------------|-----------------|----------------|

D :----------------|-----------------|----------------|

A :----------------|-----------------|----------------|

E :----------------|-----------------|----------------|

 

G :----------------|-----------------|----------------|

D :----------------|-----------------|----------------|

A :7---7-0-0-----5-|--5-0----------5-|7---7-0-0---0---|

E :------------0---|------3---3-/7---|--------------0-|

 

E :----------------|-----------------|----------------|

B :----------------|-----------------|----------------|

G :----------------|-----------------|----------------|

D :----------------|-----------------|----------------|

A :----------------|-----------------|----------------|

E :----------------|-----------------|----------------|

 

=============================================================================

 

E :*-2---2-*-3----3-|*-3---3---3---3-|*-2---2-*-3----3-|

B :3---3---3----3---|5---5---5---5---|3---3---3----3---|

G :-----------------|----------------|-----------------|

D :-----------------|----------------|-----------------|

A :-----------------|----------------|-----------------|

E :-----------------|----------------|-----------------|

 

E :*-2---2-*-3----3-|*-3---3---3---3-|*-2---2-*-3----3-|

B :3---3---3----3---|5---5---5---5---|3---3---3----3---|

G :-----------------|----------------|-----------------|

D :-----------------|----------------|-----------------|

A :-----------------|----------------|-----------------|

E :-----------------|----------------|-----------------|

 

G :-----------------|----------------|-----------------|

D :-----------------|----------------|-----------------|

A :5---5-0--------5-|7---7-0-0-----5-|--5-0----------5-|

E :--------3-3-/7---|------------0---|------3---3-/7---|

 

E :-----------------|----------------|-----------------|

B :-----------------|----------------|-----------------|

G :-----------------|----------------|-----------------|

D :-----------------|----------------|-----------------|

A :-----------------|----------------|-----------------|

E :-----------------|----------------|-----------------|

 

=============================================================================

 

E :*-----5-5---x-2-|--2-x-3-3----3-*-|------5-5---x-2-|

B :8---8-5-5---x-3-|--3-x-3-3----3-*-|8---8-5-5---x-3-|

G :9---9-*-5---x-2-|--2-x-4-4----4-*-|9---9-*-5---x-2-|

D :9---9-*-7---x-0-|--0-x-5-5----5-*-|9---9-*-7---x-0-|

A :7---7-*-*-------|-----------------|7---7-*-*-------|

E :----------------|-----------------|----------------|

 

E :*---------------|-----------------|----------------|

B :*---------------|-----------------|----------------|

G :----------------|-----------------|----------------|

D :----------------|-----------------|----------------|

A :----------------|-----------------|----------------|

E :----------------|-----------------|----------------|

 

G :----------------|-----------------|----------------|

D :----------------|-----------------|----------------|

A :7---7-0-0---0---|5---5-0--------5-|7---7-0-0-----5-|

E :--------------0-|--------3-3-/7---|------------0---|

 

E :----------------|-----------------|----------------|

B :----------------|-----------------|----------------|

G :----------------|-----------------|----------------|

D :----------------|-----------------|----------------|

A :----------------|-----------------|----------------|

E :----------------|-----------------|----------------|

 

=============================================================================

 

E :--2-x-3-3----3-*-|------5-5---x-2-|2-2-x-3-3----3-*-|

B :--3-x-3-3----3-*-|8---8-5-5---x-3-|3-3-x-3-3----3-*-|

G :--2-x-4-4----4-*-|9---9-*-5---x-2-|2-2-x-4-4----4-*-|

D :--0-x-5-5----5-*-|9---9-*-7---x-0-|0-0-x-5-5----5-*-|

A :-----------------|7---7-*-*-------|-----------------|

E :-----------------|----------------|-----------------|

 

E :-----------------|----------------|-----------------|

B :-----------------|----------------|-----------------|

G :-----------------|----------------|-----------------|

D :-----------------|----------------|-----------------|

A :-----------------|----------------|-----------------|

E :-----------------|----------------|-----------------|

 

G :-----------------|----------------|-----------------|

D :-----------------|----------------|-----------------|

A :--5-0----------5-|7---7-0-0---0---|5---5-0--------5-|

E :------3---3-/7---|--------------0-|--------3-3-/7---|

 

E :-----------------|----------------|-----------------|

B :-----------------|----------------|-----------------|

G :-----------------|----------------|-----------------|

D :-----------------|----------------|-----------------|

A :-----------------|----------------|-----------------|

E :-----------------|----------------|-----------------|

 

=============================================================================

 

E :------5-5---x-2-|--2-x-3-3----3-*-|------5-5---x-2-|

B :8---8-5-5---x-3-|--3-x-3-3----3-*-|8---8-5-5---x-3-|

G :9---9-*-5---x-2-|--2-x-4-4----4-*-|9---9-*-5---x-2-|

D :9---9-*-7---x-0-|--0-x-5-5----5-*-|9---9-*-7---x-0-|

A :7---7-*-*-------|-----------------|7---7-*-*-------|

E :----------------|-----------------|----------------|

 

E :----------------|-----------------|----------------|

B :----------------|-----------------|----------------|

G :----------------|-----------------|----------------|

D :----------------|-----------------|----------------|

A :----------------|-----------------|----------------|

E :----------------|-----------------|----------------|

 

G :----------------|-----------------|----------------|

D :----------------|-----------------|----------------|

A :7---7-0-0-----5-|--5-0----------5-|7---7-0-0---0---|

E :------------0---|------3---3-/7---|--------------0-|

 

E :----------------|-----------------|----------------|

B :----------------|-----------------|----------------|

G :----------------|-----------------|----------------|

D :----------------|-----------------|----------------|

A :----------------|-----------------|----------------|

E :----------------|-----------------|----------------|

 

=============================================================================

 

E :2-2-x-3-3----3-*-|------5-5---x-2-|--2-x-3-3----3-*-|

B :3-3-x-3-3----3-*-|8---8-5-5---x-3-|--3-x-3-3----3-*-|

G :2-2-x-4-4----4-*-|9---9-*-5---x-2-|--2-x-4-4----4-*-|

D :0-0-x-5-5----5-*-|9---9-*-7---x-0-|--0-x-5-5----5-*-|

A :-----------------|7---7-*-*-------|-----------------|

E :-----------------|----------------|-----------------|

 

E :-----------------|----------------|-----------------|

B :-----------------|----------------|-----------------|

G :-----------------|----------------|-----------------|

D :-----------------|----------------|-----------------|

A :-----------------|----------------|-----------------|

E :-----------------|----------------|-----------------|

 

G :-----------------|----------------|-----------------|

D :-----------------|----------------|-----------------|

A :5---5-0--------5-|7---7-0-0-----5-|--5-0----------5-|

E :--------3-3-/7---|------------0---|------3---3-/7---|

 

E :-----------------|----------------|-----------------|

B :-----------------|----------------|-----------------|

G :-----------------|----------------|-----------------|

D :-----------------|----------------|-----------------|

A :-----------------|----------------|-----------------|

E :-----------------|----------------|-----------------|

 

=============================================================================

 

E :*-3---3---3---3-|*-2---2-*-3----3-|*-3---3---3---3-|

B :5---5---5---5---|3---3---3----3---|5---5---5---5---|

G :----------------|-----------------|----------------|

D :----------------|-----------------|----------------|

A :----------------|-----------------|----------------|

E :----------------|-----------------|----------------|

 

E :*-3---3---3---3-|*-2---2-*-3----3-|*-3---3---3---3-|

B :5---5---5---5---|3---3---3----3---|5---5---5---5---|

G :----------------|-----------------|----------------|

D :----------------|-----------------|----------------|

A :----------------|-----------------|----------------|

E :----------------|-----------------|----------------|

 

G :----------------|-----------------|----------------|

D :----------------|-----------------|----------------|

A :7---7-0-0---0---|5---5-0--------5-|7---7-0-0-----5-|

E :--------------0-|--------3-3-/7---|------------0---|

 

E :----------------|-----------------|----------------|

B :----------------|-----------------|----------------|

G :----------------|-----------------|----------------|

D :----------------|-----------------|----------------|

A :----------------|-----------------|----------------|

E :----------------|-----------------|----------------|

 

=============================================================================

 

E :*-2---2-*-3----3-|*-3---3---3---3-|*-2---2-*-3----3-|

B :3---3---3----3---|5---5---5---5---|3---3---3----3---|

G :-----------------|----------------|-----------------|

D :-----------------|----------------|-----------------|

A :-----------------|----------------|-----------------|

E :-----------------|----------------|-----------------|

 

E :*-2---2-*-3----3-|*-3---3---3---3-|*-2---2-*-3----3-|

B :3---3---3----3---|5---5---5---5---|3---3---3----3---|

G :-----------------|----------------|-----------------|

D :-----------------|----------------|-----------------|

A :-----------------|----------------|-----------------|

E :-----------------|----------------|-----------------|

 

G :-----------------|----------------|-----------------|

D :-----------------|----------------|-----------------|

A :--5-0----------5-|7---7-0-0---0---|5---5-0--------5-|

E :------3---3-/7---|--------------0-|--------3-3-/7---|

 

E :-----------------|----------------|-----------------|

B :-----------------|----------------|-----------------|

G :-----------------|----------------|-----------------|

D :-----------------|----------------|-----------------|

A :-----------------|----------------|-----------------|

E :-----------------|----------------|-----------------|

 

=============================================================================

 

E :*-3---3---3---3-|*-2---2-*-3----3-|----------------|----------------|

B :5---5---5---5---|3---3---3----3---|----------------|----------------|

G :----------------|-----------------|7---7---7---7---|----------------|

D :----------------|-----------------|7---7---7---7---|5---5---5---5---|

A :----------------|-----------------|5---5---5---5---|5---5---5---5---|

E :----------------|-----------------|5---5---5---5---|3---3---3---3---|

 

E :*-3---3---3---3-|*-2---2-*-3----3-|*---------------|----------------|

B :5---5---5---5---|3---3---3----3---|*---------------|----------------|

G :----------------|-----------------|----------------|----------------|

D :----------------|-----------------|----------------|----------------|

A :----------------|-----------------|----------------|----------------|

E :----------------|-----------------|----------------|----------------|

 

G :----------------|-----------------|----------------|----------------|

D :----------------|-----------------|----------------|----------------|

A :7---7-0-0-----5-|--5-0----------5-|5---5---5---5---|----------------|

E :------------0---|------3---3-/7---|----------------|3---3---3---3-0-|

 

E :----------------|-----------------|----------------|----------------|

B :----------------|-----------------|----------------|----------------|

G :----------------|-----------------|----------------|----------------|

D :----------------|-----------------|----------------|----------------|

A :----------------|-----------------|----------------|----------------|

E :----------------|-----------------|----------------|----------------|

 

=============================================================================

 

E :----------------|----------------|----------------|----------------|

B :----------------|----------------|----------------|----------------|

G :7---7---7---7---|----------------|5---5---5---5---|2---2---2---2---|

D :7---7---7---7---|5---5---5---5---|5---5---5---5---|2---2---2---2---|

A :5---5---5---5---|5---5---5---5---|3---3---3---3---|0---0---0---0---|

E :5---5---5---5---|3---3---3---3---|----------------|----------------|

 

E :----------------|----------------|----------------|----------------|

B :----------------|----------------|----------------|----------------|

G :----------------|----------------|----------------|----------------|

D :----------------|----------------|----------------|----------------|

A :----------------|----------------|----------------|----------------|

E :----------------|----------------|----------------|----------------|

 

G :----------------|----------------|----------------|----------------|

D :----------------|----------------|----------------|----------------|

A :5---5---5---5---|----------------|3---3---3---3---|0---0---0---0---|

E :--------------0-|3---3---3---3-0-|----------------|--------------0-|

 

E :----------------|----------------|----------------|----------------|

B :----------------|----------------|----------------|----------------|

G :----------------|----------------|----------------|----------------|

D :----------------|----------------|----------------|----------------|

A :----------------|----------------|----------------|----------------|

E :----------------|----------------|----------------|----------------|

 

=============================================================================

 

E :----------------|----------------|*-----5-5---x-2-|--2-x-3-3----3-*-|

B :----------------|----------------|8---8-5-5---x-3-|--3-x-3-3----3-*-|

G :7---7---7---7---|7---7---7---7---|9---9-*-5---x-2-|--2-x-4-4----4-*-|

D :7---7---7---7---|7---7---7---7---|9---9-*-7---x-0-|--0-x-5-5----5-*-|

A :5---5---5---5---|5---5---5---5---|7---7-*-*-------|-----------------|

E :5---5---5---5---|5---5---5---5---|*---------------|-----------------|

 

E :----------------|----------------|----------------|-----------------|

B :----------------|----------------|----------------|-----------------|

G :----------------|----------------|----------------|-----------------|

D :----------------|----------------|----------------|-----------------|

A :----------------|----------------|----------------|-----------------|

E :----------------|----------------|----------------|-----------------|

 

G :----------------|----------------|----------------|-----------------|

D :----------------|----------------|----------------|-----------------|

A :5---5---5---5-0-|5---5---5---5---|7---7-0-0---0---|5---5-0--------5-|

E :----------------|----------------|--------------0-|--------3-3-/7---|

 

E :----------------|----------------|----------------|-----------------|

B :----------------|----------------|----------------|-----------------|

G :----------------|----------------|----------------|-----------------|

D :----------------|----------------|----------------|-----------------|

A :----------------|----------------|----------------|-----------------|

E :----------------|----------------|----------------|-----------------|

 

=============================================================================

 

E :------5-5---x-2-|--2-x-3-3----3-*-|------5-5-----x-2-|

B :8---8-5-5---x-3-|--3-x-3-3----3-*-|8---8-5-5-----x-3-|

G :9---9-*-5---x-2-|--2-x-4-4----4-*-|9---9-*-5-----x-2-|

D :9---9-*-7---x-0-|--0-x-5-5----5-*-|9---9-*-7-----x-0-|

A :7---7-*-*-------|-----------------|7---7-*-*---------|

E :----------------|-----------------|------------------|

 

E :----------------|-----------------|------------------|

B :----------------|-----------------|------------------|

G :----------------|-----------------|----------<7>-9-7-|

D :----------------|-----------------|------------------|

A :----------------|-----------------|------------------|

E :----------------|-----------------|------------------|

 

G :----------------|-----------------|------------------|

D :----------------|-----------------|------------------|

A :7---7-0-0-----5-|--5-0----------5-|7---7-0-0-----0---|

E :------------0---|------3---3-/7---|----------------0-|

 

E :----------------|-----------------|------------------|

B :----------------|-----------------|------------------|

G :----------------|-----------------|------------------|

D :----------------|-----------------|------------------|

A :----------------|-----------------|------------------|

E :----------------|-----------------|------------------|

 

=============================================================================

 

E :2-2-x-3-3----3-*-|------5-5---x-2-|--2-x-3-3----3-*-|

B :3-3-x-3-3----3-*-|8---8-5-5---x-3-|--3-x-3-3----3-*-|

G :2-2-x-4-4----4-*-|9---9-*-5---x-2-|--2-x-4-4----4-*-|

D :0-0-x-5-5----5-*-|9---9-*-7---x-0-|--0-x-5-5----5-*-|

A :-----------------|7---7-*-*-------|-----------------|

E :-----------------|----------------|-----------------|

 

E :-----------------|----------------|-----------------|

B :-----------------|----------------|-----------------|

G :----5-4------5-4-|----------0-4-2-|----0--------0-0-|

D :-----------------|----------------|------4----------|

A :-----------------|----------------|-----------------|

E :-----------------|----------------|-----------------|

 

G :-----------------|----------------|-----------------|

D :-----------------|----------------|-----------------|

A :5---5-0--------5-|7---7-0-0-----5-|--5-0----------5-|

E :--------3-3-/7---|------------0---|------3---3-/7---|

 

E :-----------------|----------------|-----------------|

B :-----------------|----------------|-----------------|

G :-----------------|----------------|-----------------|

D :-----------------|----------------|-----------------|

A :-----------------|----------------|-----------------|

E :-----------------|----------------|-----------------|

 

=============================================================================

 

E :------5-5---x-2-|2-2-x-3-3----3-*-|------5-5---x-2-|

B :8---8-5-5---x-3-|3-3-x-3-3----3-*-|8---8-5-5---x-3-|

G :9---9-*-5---x-2-|2-2-x-4-4----4-*-|9---9-*-5---x-2-|

D :9---9-*-7---x-0-|0-0-x-5-5----5-*-|9---9-*-7---x-0-|

A :7---7-*-*-------|-----------------|7---7-*-*-------|

E :----------------|-----------------|----------------|

 

E :----------------|-----------------|----------------|

B :----------------|-----------------|----------------|

G :----------0-9-7-|----5-4------5-4-|----------0-4-2-|

D :----------------|-----------------|----------------|

A :----------------|-----------------|----------------|

E :----------------|-----------------|----------------|

 

G :----------------|-----------------|----------------|

D :----------------|-----------------|----------------|

A :7---7-0-0---0---|5---5-0--------5-|7---7-0-0-----5-|

E :--------------0-|--------3-3-/7---|------------0---|

 

E :----------------|-----------------|----------------|

B :----------------|-----------------|----------------|

G :----------------|-----------------|----------------|

D :----------------|-----------------|----------------|

A :----------------|-----------------|----------------|

E :----------------|-----------------|----------------|

 

=============================================================================

 

E :--2-x-3-3----3-*-|*-3---3---3---3-|*-2---2-*-3----3-|

B :--3-x-3-3----3-*-|5---5---5---5---|3---3---3----3---|

G :--2-x-4-4----4-*-|----------------|-----------------|

D :--0-x-5-5----5-*-|----------------|-----------------|

A :-----------------|----------------|-----------------|

E :-----------------|----------------|-----------------|

 

E :-----------------|----------------|-----------------|

B :-----------------|----------------|-----------------|

G :----0--------0-0-|----------------|*----------------|

D :------4----------|----------------|-----------------|

A :-----------------|----------------|-----------------|

E :-----------------|----------------|-----------------|

 

G :-----------------|----------------|-----------------|

D :-----------------|----------------|-----------------|

A :--5-0----------5-|7---7-0-0---0---|5---5-0--------5-|

E :------3---3-/7---|--------------0-|--------3-3-/7---|

 

E :-----------------|*-3---3---3---3-|*-2---2-*-3----3-|

B :-----------------|5---5---5---5---|3---3---3----3---|

G :-----------------|----------------|-----------------|

D :-----------------|----------------|-----------------|

A :-----------------|----------------|-----------------|

E :-----------------|----------------|-----------------|

 

=============================================================================

 

E :*-3---3---3---3-|*-2---2-*-3----3-|*-3---3---3---3-|

B :5---5---5---5---|3---3---3----3---|5---5---5---5---|

G :----------------|-----------------|----------------|

D :----------------|-----------------|----------------|

A :----------------|-----------------|----------------|

E :----------------|-----------------|----------------|

 

E :*-3---3---3---3-|*-2---2-*-3----3-|*-3---3---3---3-|

B :5---5---5---5---|3---3---3----3---|5---5---5---5---|

G :----------------|-----------------|----------------|

D :----------------|-----------------|----------------|

A :----------------|-----------------|----------------|

E :----------------|-----------------|----------------|

 

G :----------------|-----------------|----------------|

D :----------------|-----------------|----------------|

A :7---7-0-0-----5-|--5-0----------5-|7---7-0-0---0---|

E :------------0---|------3---3-/7---|--------------0-|

 

E :*---------------|-----------------|----------------|

B :*---------------|-----------------|----------------|

G :----------------|-----------------|----------------|

D :----------------|-----------------|----------------|

A :----------------|-----------------|----------------|

E :----------------|-----------------|----------------|

 

=============================================================================

 

E :*-2---2-*-3----3-|*-3---3---3---3-|*-2---2-*-3----3-|

B :3---3---3----3---|5---5---5---5---|3---3---3----3---|

G :-----------------|----------------|-----------------|

D :-----------------|----------------|-----------------|

A :-----------------|----------------|-----------------|

E :-----------------|----------------|-----------------|

 

E :*-2---2-*-3----3-|*-3---3---3---3-|*-2---2-*-3----3-|

B :3---3---3----3---|5---5---5---5---|3---3---3----3---|

G :-----------------|----------------|-----------------|

D :-----------------|----------------|-----------------|

A :-----------------|----------------|-----------------|

E :-----------------|----------------|-----------------|

 

G :-----------------|----------------|-----------------|

D :-----------------|----------------|-----------------|

A :5---5-0--------5-|7---7-0-0-----5-|--5-0----------5-|

E :--------3-3-/7---|------------0---|------3---3-/7---|

 

E :-----------------|----------------|-----------------|

B :-----------------|----------------|-----------------|

G :-----------------|----------------|-----------------|

D :-----------------|----------------|-----------------|

A :-----------------|----------------|-----------------|

E :-----------------|----------------|-----------------|

 

=============================================================================

 

E :----------------|----------------|----------------|----------------|

B :----------------|----------------|----------------|----------------|

G :7---7---7---7---|----------------|7---7---7---7---|----------------|

D :7---7---7---7---|5---5---5---5---|7---7---7---7---|5---5---5---5---|

A :5---5---5---5---|5---5---5---5---|5---5---5---5---|5---5---5---5---|

E :5---5---5---5---|3---3---3---3---|5---5---5---5---|3---3---3---3---|

 

E :----------------|----------------|----------------|----------------|

B :----------------|----------------|----------------|----------------|

G :----------------|----------------|----------------|----------------|

D :----------------|----------------|----------------|----------------|

A :----------------|----------------|----------------|----------------|

E :----------------|----------------|----------------|----------------|

 

G :----------------|----------------|----------------|----------------|

D :----------------|----------------|----------------|----------------|

A :5---5---5---5---|----------------|5---5---5---5---|----------------|

E :----------------|3---3---3---3-0-|--------------0-|3---3---3---3-0-|

 

E :----------------|----------------|----------------|----------------|

B :----------------|----------------|----------------|----------------|

G :----------------|----------------|----------------|----------------|

D :----------------|----------------|----------------|----------------|

A :----------------|----------------|----------------|----------------|

E :----------------|----------------|----------------|----------------|

 

=============================================================================

 

E :----------------|----------------|----------------|----------------|

B :----------------|----------------|----------------|----------------|

G :5---5---5---5---|2---2---2---2---|7---7---7---7---|7---7---7---7---|

D :5---5---5---5---|2---2---2---2---|7---7---7---7---|7---7---7---7---|

A :3---3---3---3---|0---0---0---0---|5---5---5---5---|5---5---5---5---|

E :----------------|----------------|5---5---5---5---|5---5---5---5---|

 

E :----------------|----------------|----------------|----------------|

B :----------------|----------------|----------------|----------------|

G :----------------|----------------|----------------|----------------|

D :----------------|----------------|----------------|----------------|

A :----------------|----------------|----------------|----------------|

E :----------------|----------------|----------------|----------------|

 

G :----------------|----------------|----------------|----------------|

D :----------------|----------------|----------------|----------------|

A :3---3---3---3---|0---0---0---0---|5---5---5---5-0-|5---5---5---5---|

E :----------------|--------------0-|----------------|----------------|

 

E :----------------|----------------|----------------|----------------|

B :----------------|----------------|----------------|----------------|

G :----------------|----------------|----------------|----------------|

D :----------------|----------------|----------------|----------------|

A :----------------|----------------|----------------|----------------|

E :----------------|----------------|----------------|----------------|

 

=============================================================================

 

E :------5-5---x-2-|2-2-x-3-3----3-*-|------5-5---x-2-|

B :8---8-5-5---x-3-|3-3-x-3-3----3-*-|8---8-5-5---x-3-|

G :9---9-*-5---x-2-|2-2-x-4-4----4-*-|9---9-*-5---x-2-|

D :9---9-*-7---x-0-|0-0-x-5-5----5-*-|9---9-*-7---x-0-|

A :7---7-*-*-------|-----------------|7---7-*-*-------|

E :*---------------|-----------------|----------------|

 

E :----------------|-----------------|----------------|

B :----------------|-----------------|----------------|

G :----------------|-----------------|----------------|

D :----------------|-----------------|----------------|

A :----------------|-----------------|----------------|

E :----------------|-----------------|----------------|

 

G :----------------|-----------------|----------------|

D :----------------|-----------------|----------------|

A :7---7-0-0---0---|5---5-0--------5-|7---7-0-0-----5-|

E :--------------0-|--------3-3-/7---|------------0---|

 

E :----------------|-----------------|----------------|

B :----------------|----------8----7-|--8---7---5---3-|

G :----------------|-----------------|----------------|

D :----------------|-----------------|----------------|

A :----------------|-----------------|----------------|

E :----------------|-----------------|----------------|

 

=============================================================================

 

E :--2-x-3-3----3-*-|------5-5---x-2-|2-2-x-3-3----3-*-|

B :--3-x-3-3----3-*-|8---8-5-5---x-3-|3-3-x-3-3----3-*-|

G :--2-x-4-4----4-*-|9---9-*-5---x-2-|2-2-x-4-4----4-*-|

D :--0-x-5-5----5-*-|9---9-*-7---x-0-|0-0-x-5-5----5-*-|

A :-----------------|7---7-*-*-------|-----------------|

E :-----------------|----------------|-----------------|

 

E :-----------------|*-3---3---3---3-|*-2---2-*-3----3-|

B :-----------------|5---5---5---5---|3---3---3----3---|

G :-----------------|----------------|-----------------|

D :-----------------|----------------|-----------------|

A :-----------------|----------------|-----------------|

E :-----------------|----------------|-----------------|

 

G :-----------------|----------------|-----------------|

D :-----------------|----------------|-----------------|

A :--5-0----------5-|7---7-0-0---0---|5---5-0--------5-|

E :------3---3-/7---|--------------0-|--------3-3-/7---|

 

E :-----------------|----------------|-----------------|

B :--5---3---1--0-*-|----------------|-----------------|

G :-----------------|----------------|-----------------|

D :-----------------|----------------|-----------------|

A :-----------------|----------------|-----------------|

E :-----------------|----------------|-----------------|

 

=============================================================================

 

E :------5-5---x-2-|--2-x-3-3----3-*-|------5-5---x-2-|

B :8---8-5-5---x-3-|--3-x-3-3----3-*-|8---8-5-5---x-3-|

G :9---9-*-5---x-2-|--2-x-4-4----4-*-|9---9-*-5---x-2-|

D :9---9-*-7---x-0-|--0-x-5-5----5-*-|9---9-*-7---x-0-|

A :7---7-*-*-------|-----------------|7---7-*-*-------|

E :----------------|-----------------|----------------|

 

E :*-3---3---3---3-|*-2---2-*-3----3-|*-3---3---3---3-|

B :5---5---5---5---|3---3---3----3---|5---5---5---5---|

G :----------------|-----------------|----------------|

D :----------------|-----------------|----------------|

A :----------------|-----------------|----------------|

E :----------------|-----------------|----------------|

 

G :----------------|-----------------|----------------|

D :----------------|-----------------|----------------|

A :7---7-0-0-----5-|--5-0----------5-|7---7-0-0---0---|

E :------------0---|------3---3-/7---|--------------0-|

 

E :----------------|-----------------|----------------|

B :----------------|----------8----7-|--8---7---5---3-|

G :----------------|-----------------|----------------|

D :----------------|-----------------|----------------|

A :----------------|-----------------|----------------|

E :----------------|-----------------|----------------|

 

=============================================================================

 

E :2-2-x-3-3----3-*-|------5-5---x-2-|--2-x-3-3----3-*-|

B :3-3-x-3-3----3-*-|8---8-5-5---x-3-|--3-x-3-3----3-*-|

G :2-2-x-4-4----4-*-|9---9-*-5---x-2-|--2-x-4-4----4-*-|

D :0-0-x-5-5----5-*-|9---9-*-7---x-0-|--0-x-5-5----5-*-|

A :-----------------|7---7-*-*-------|-----------------|

E :-----------------|----------------|-----------------|

 

E :*-2---2-*-3----3-|*-3---3---3---3-|*-2---2-*-3----3-|

B :3---3---3----3---|5---5---5---5---|3---3---3----3---|

G :-----------------|----------------|-----------------|

D :-----------------|----------------|-----------------|

A :-----------------|----------------|-----------------|

E :-----------------|----------------|-----------------|

 

G :-----------------|----------------|-----------------|

D :-----------------|----------------|-----------------|

A :5---5-0--------5-|7---7-0-0-----5-|--5-0----------5-|

E :--------3-3-/7---|------------0---|------3---3-/7---|

 

E :-----------------|----------------|-----------------|

B :--5---3---1--0-*-|----------------|--------0----0---|

G :-----------------|----------------|-----------------|

D :-----------------|----------------|-----------------|

A :-----------------|----------------|-----------------|

E :-----------------|----------------|-----------------|

 

=============================================================================

 

E :------5-5---x-2-|2-2-x-3-3----3-*-|----------------|

B :8---8-5-5---x-3-|3-3-x-3-3----3-*-|----------------|

G :9---9-*-5---x-2-|2-2-x-4-4----4-*-|----------------|

D :9---9-*-7---x-0-|0-0-x-5-5----5-*-|----------------|

A :7---7-*-*-------|-----------------|----------------|

E :----------------|-----------------|----------------|

 

E :*-3---3---3---3-|*-2---2-*-3----3-|*---------------|

B :5---5---5---5---|3---3---3----3---|*---------------|

G :----------------|-----------------|----------------|

D :----------------|-----------------|----------------|

A :----------------|-----------------|----------------|

E :----------------|-----------------|----------------|

 

G :----------------|-----------------|----------------|

D :----------------|-----------------|----------------|

A :7---7-0-0---0---|5---5-0--------5-|*---------------|

E :--------------0-|--------3-3-/7---|----------------|

 

E :----------------|-----------------|----------------|

B :*---------------|-----------------|----------------|

G :----------------|-----------------|----------------|

D :----------------|-----------------|----------------|

A :----------------|-----------------|----------------|

E :----------------|-----------------|----------------|

 

 

Return to my to my Weezer tabs page

The Tablature is Copyright its respective owners.

Sign Up For My Newsletter
Subscribe | Unsubscribe

Site Map | Disclaimer | Privacy Policy | Media Kit | Submissions/Corrections

Website © 2000-2014 mattsmusicpage.com. All rights reserved.

Legal & DMCA: Matt's Music Page has been providing lyrics and tabs in a legal way, paying royalties each year to a few organizations. Then, all lyrics and tabs were removed from the site. Now, there's a new owner to the site, which purchased it August 26, 2014, and he is in negotiation to obtain licensing from BMI at the moment. If you have a specific DMCA request -- please do not hesitate to contact me via the contact button on top. I will do my very best to keep this site fully legal.

Get our toolbar!