Your One-Stop Source For
Music Lyrics
Bass and Guitar Tabs
and More...
>Music Lyrics Bass and Guitar Tabs

 

The Tabs Are Below

Learn To Read Tab
Chords Handbook
Corrections & Additions
Get Official Tab
Weezer tabs @ 911Tabs

 

Weezer

In The Garage

1/2 Step Down

 

 

8)In the Garage

 

Intro: G D C Em G D C C/B C/A G

 

G A E

I've got the dungeon master's guide

G A E

I've got 12 sided die

G A E

I've got Kitty Pryde

C G

and Nightcrawler too

C G E G E G *Play this

waiting there for me, yes I do*, I do* e---3---3--------

B----3---3--3----

G-----0---0------

 

G A E

I've got posters on the wall

G A E

My favorite rock group, Kiss

G E

I've got Ace Frehley

C G

I've got Peter Criss

C G E G E G

Waiting there for me, yes I do*, I do*

 

G D

In the Garage

A Em

I feel safe

G D C C/B C/A G

No one cares about my ways

G D A Em

In the garage where I belong

G D C C/B C/A G

No one hears me sing this song

A/E A/E G

In the garage

 

Play intro

 

 

 

(Guitar tacet)

I got an electric guitar

I play my stupid songs

I write these stupid words

G

and I love everyone

Waiting there for me, yes I do, I do

 

Chorus

 

-----------------------------------------------------------------------

-----------------------------------------------12-12-12-12-------------

9-9-9-9-9-11-12--14b-14b-14b--9-9-9-9-9-11-12--14-14-14-14b16----------

-----------------------------------------------------------------------

-----------------------------------------------------------------------

-----------------------------------------------------------------------

 

-----------------------------------------------------------------------

------------------15-13-12h13p12--------15-13-12h13p12--------15-12----

-9-9-9-9-9-11-12-----------------14-12-----------------14-12-----------

-----------------------------------------------------------------------

-----------------------------------------------------------------------

-----------------------------------------------------------------------

 

---------------------------------------------15-18b19-18-15-12---------

15b17-15-14-12-15-14-13-12-------12/13-15-17---------------------------

---------------------------12/14---------------------------------------

-----------------------------------------------------------------------

-----------------------------------------------------------------------

-----------------------------------------------------------------------

 

Ending: A A G A A G

 

 

 

Tabbed by TNitz303@aol.com

 

Return to my to my Weezer tabs page

The Tablature is Copyright its respective owners.

Sign Up For My Newsletter
Subscribe | Unsubscribe

Site Map | Disclaimer | Privacy Policy | Media Kit | Submissions/Corrections

Website © 2000-2014 mattsmusicpage.com. All rights reserved.

Legal & DMCA: Matt's Music Page has been providing lyrics and tabs in a legal way, paying royalties each year to a few organizations. Then, all lyrics and tabs were removed from the site. Now, there's a new owner to the site, which purchased it August 26, 2014, and he is in negotiation to obtain licensing from BMI at the moment. If you have a specific DMCA request -- please do not hesitate to contact me via the contact button on top. I will do my very best to keep this site fully legal.

Get our toolbar!

 

VINTAGE SORRENTO MUSIC JEWELRY BOX
$45.0
VINTAGE SORRENTO MUSIC JEWELRY BOX picture


VINTAGE LACQUERED MUSIC BOX JAPAN
$25.99
VINTAGE LACQUERED MUSIC BOX JAPAN picture


Vintage Kehlsteinhaus Bavaria Germany Colorscope Cow Bell View Master Music Box
$8.99
Vintage Kehlsteinhaus Bavaria Germany Colorscope Cow Bell View Master Music Box picture


VINTAGE SCHMIDT Signed Collectible Musical Turning Clown
$9.99
VINTAGE  SCHMIDT Signed Collectible Musical Turning Clown picture


Vintage - Linen - Postcard - Stage - Radio City Music Hall - New York City
$3.75
Vintage - Linen - Postcard - Stage - Radio City Music Hall - New York City   picture