Your One-Stop Source For
Music Lyrics
Bass and Guitar Tabs
and More...
Music Lyrics Bass and Guitar Tabs

 

The Tabs Are Below

Learn To Read Tab
Chords Handbook
Corrections & Additions
Get Official Tab
Weezer tabs @ 911Tabs

I Do

Music/Lyrics: Rivers Cuomo (as far as I know)

Tab by: Le Do

sweetdough@hotmail.com

 

intro (guitar)

G/C D G/C D G G

E-----------------------------|

B-----------------------------|

G--4----2---/7--4----2---0-0--|

 

(keyboard arr. for guitar)

verse 1

G D/A Am E

all the times you came i should've ran away

E----------------------------------------------

B----------------------------------------------

G--4-----------------7------5--------------9---

D--5-5-------------5-7------7-7------------9---

A-(5)----------------5-----(7)-----------7-7---

E--3----------------(5)-----5-------------(7)--

pre-chorus

C D/A G D G

you told me that you'd always love me x2 OR C D/A G D G

E---------------(7)--------(5)--------------| E----0-2-3-3---2-------

B----5---7----8--8----------7-----(8)-------| B----------3---3---3---

G---(5)-(7)---7--7----------7------7--------| G--0------(0)-(2)-(4)--

D---5------------------------------5--------| D------------------5---

A--3----------------------------------------| A-3--------------------

E-------------------------------------------| E----------------------

 

verse 2

G D/A Am E

and the games you played were meant to lead me on

E-----------------------------------------------------

B-----------------------------------------------------

G--4-----------------7-----------5----------------9---

D--5-----------------7-----------7----------------9---

A-(5)----------------5----------(7)---------------7---

E--3----------------(5)----------5---------------(7)--

 

prechorus x2

 

chorus

G/C D G/C D (this might be off...just put C instead of G/C)

al--ways ooh al--ways I do

E-----------------------------------

B-----------------------------------

G--4/5-7--------4/5-7-------4-------

D--5---7--------5---7-------5-------

A--2/3-5--------2/3-5----------5----

E-(3)----------(3)---------------3--

 

solo (guitar)

G D/A Am E

E--------------------------------------

B-----------3-------------------5------

G--4---2-4-----2~---4--5---4-5-----4~--

 

prechorus x2

 

chorus

 

verse 3/outro

G D Am E

nevermore again will I believe the sun

E-----------------------------------------

B-----------------------------------------

G--4----------7---------5-------------9---

D--5--------5-7---------7-7---------7-9---

A-(5)---------5------5-(7)------------7---

E--3---------(5)--------5------------(7)--

Return to my to my Weezer tabs page

The Tablature is Copyright its respective owners.

Sign Up For My Newsletter
Subscribe | Unsubscribe

Site Map | Disclaimer | Privacy Policy | Media Kit | Submissions/Corrections

Website © 2000-2014 mattsmusicpage.com. All rights reserved.

Legal & DMCA: Matt's Music Page has been providing lyrics and tabs in a legal way, paying royalties each year to a few organizations. Then, all lyrics and tabs were removed from the site. Now, there's a new owner to the site, which purchased it August 26, 2014, and he is in negotiation to obtain licensing from BMI at the moment. If you have a specific DMCA request -- please do not hesitate to contact me via the contact button on top. I will do my very best to keep this site fully legal.

Get our toolbar!