Your One-Stop Source For
Music Lyrics
Bass and Guitar Tabs
and More...
Music Lyrics Bass and Guitar Tabs

 

The Tabs Are Below

Learn To Read Tab
Chords Handbook
Corrections & Additions
Get Official Tab
Weezer tabs @ 911Tabs

 

Weezer

Holiday

1/2 Step Down

 

 

 

9)Holiday

 

--------------------//----------------------------//-------------------

-----4-5-4h5p4-----7b8b7p5h7b8-7b8b7-5-7-7-5--9b10b9p7-10b12--7b9------

-4h6-----------6----//---------------------------//--------------------

-----------------------------------------------------------------------

-----------------------------------------------------------------------

-----------------------------------------------------------------------

 

-----------------------------------------------------------------------

-12-12-12-10-10-10-10-9-10-12-10---------------------------------------

-----------------------------------------------------------------------

-----------------------------------------------------------------------

-----------------------------------------------------------------------

-----------------------------------------------------------------------

 

E F# G#

Let's go away for a while

A

You and I

B A B A E

to a strange and distant land

E F# G# A

Where they speak no word of truth

B C#m

But we don't understand anyway

 

 

Chorus

 

E G# A

Hol-i-day

E

Far away

A

to stay

E G# A

on a hol-i-day

E

far away

A

Let's go today

E G#

in a Heartbeat

E B C E B C

Heartbeat... Heartbeat

 

 

Don't bother to pack your bag

or your map

we won't need them where we're going

We're going where the wind is blowin'

Not knowin' where we're gonna stay

 

Chorus

 

We will write a postcard

to our friends and family

In free verse

On the road with Kerouac

Sheltered in his Bivouac

E B C

On this road we'll never die

 

 

Beginning of third verse lead guitar

---0---0---0-----0-----0-----------------------------------------------

-0---4---4---0-4---2-4---4-2-0-----------------------------------------

-------------------------------2-1-------------------------------------

-----------------------------------------------------------------------

-----------------------------------------------------------------------

-----------------------------------------------------------------------

 

 

A E

Let's go away

E G# A C# B F#(bend) E

in a heartbeat---------------!

 

 

 

 

Tabbed by TNitz303@aol.com

 

Return to my to my Weezer tabs page

The Tablature is Copyright its respective owners.

Sign Up For My Newsletter
Subscribe | Unsubscribe

Site Map | Disclaimer | Privacy Policy | Media Kit | Submissions/Corrections

Website © 2000-2014 mattsmusicpage.com. All rights reserved.

Legal & DMCA: Matt's Music Page has been providing lyrics and tabs in a legal way, paying royalties each year to a few organizations. Then, all lyrics and tabs were removed from the site. Now, there's a new owner to the site, which purchased it August 26, 2014, and he is in negotiation to obtain licensing from BMI at the moment. If you have a specific DMCA request -- please do not hesitate to contact me via the contact button on top. I will do my very best to keep this site fully legal.

Get our toolbar!