Your One-Stop Source For
Music Lyrics
Bass and Guitar Tabs
and More...
>Music Lyrics Bass and Guitar Tabs

 

The Tabs Are Below

Learn To Read Tab
Chords Handbook
Corrections & Additions
Get Official Tab
Weezer tabs @ 911Tabs

 

Date: Mon, 18 Jun 2001 00:55:04 -0400

From: nate f <zero606@excite.com>

Subject: w/weezer/hashpipe.tab

 

Song: Hashpipe

Artist: Weezer

Album: New (as yet untitled) Album

Tuning: Standard (l to h): EADGBe

 

Notes: I dig this song. On the verses, while you're palm muting, every 4

bars or so

he lets off the palm mute on the last C5 chord. The "." indicates a

staccato

note.

Contact: Nate (zero606@excite.com)

 

Verse (palm muted)

e----------

B----------

G----------

D----------

A-0-0-2-3--

E----------

 

Chorus (listen for rhythm on first part)

e-----------------------------

B-----------------------------

G-7-7-7---7-7-7-7--7--7-7-7-7- x2

D-7-7-7---7-7-7-7--7--7-7-7-7-

A-5-5-5---5-5-5-5--5--5-5-5-5-

E-5-5-5---5-5-5-5--5--5-5-5-5-

 

e----------

B----------

G---------- x4

D-2-2-4-5--

A-0-0-2-3--

E----------

 

D5

/ / / / / / / / / / / / / / / /

F5

/ / / / / / / / / / / / / / / /

E5

/ / / / / / / / / / / / / / / /

D5

/ / / / / / / / / / / / / / / /

C5

/ / / / / / / / / / / / / / / /

B5

/ / / / / / / / / / / / / /

 

Bridge

 

Guitar 1

G5

/ / / / / / / / / / / / / / / /

Guitar 2

e-------------------------------

B---------------13.-----13.-----

G-------------------12.-----12.-

D-------------------------------

A-------------------------------

E-------------------------------

 

Solo

e----------------------------------------------

B-13-13-13-13-12-12-12-12-10-10-10-10-8-8-8-8~-

G-12-12-12-12-11-11-11-11--9--9--9--9-7-7-7-7~-

D----------------------------------------------

A----------------------------------------------

E----------------------------------------------

 

e----------------------------------

B----------------------------------

G--9-9-9-9-7-7-7-7-5-5-5-5-4-4-4-4-

D----------------------------------

A--7-7-7-7-5-5-5-5-3-3-3-3-2-2-2-2-

E----------------------------------

 

e-----------------------------------------

B-----------------------------------------

G-12-12-12-12-11-11-11-11-9-9-9-9-7-7-7-7-

D-----------------------------------------

A-10-10-10-10--9--9--9--9-7-7-7-7-5-5-5-5-

E-----------------------------------------

 

e-------------------------------------------------

B-------------------------------------------------

G-16-16-16-16-14-14-14-14-16-16-16-16-14-14-14-14-

D-------------------------------------------------

A-14-14-14-14-12-12-12-12-14-14-14-14-12-12-12-12-

E-------------------------------------------------

 

Chords

D5 F5 E5 C5 B5 G5

e------------------

B------------------

G-7-10--9--5--4----

D-7-10--9--5--4--5-

A-5--8--7--3--2--5-

E-5--8--7--3--2--3-

 

 

Song Structure

Verse

Chorus

Verse

Chorus

Bridge

Solo

Chorus

Bridge

Verse

 

Return to my to my Weezer tabs page

The Tablature is Copyright its respective owners.

Sign Up For My Newsletter
Subscribe | Unsubscribe

Site Map | Disclaimer | Privacy Policy | Media Kit | Submissions/Corrections

Website © 2000-2014 mattsmusicpage.com. All rights reserved.

Legal & DMCA: Matt's Music Page has been providing lyrics and tabs in a legal way, paying royalties each year to a few organizations. Then, all lyrics and tabs were removed from the site. Now, there's a new owner to the site, which purchased it August 26, 2014, and he is in negotiation to obtain licensing from BMI at the moment. If you have a specific DMCA request -- please do not hesitate to contact me via the contact button on top. I will do my very best to keep this site fully legal.

Get our toolbar!

 

Disneyland Book and Record Mickey Mouse, Brave Little Tailor 7", 33 1/3 LP Vinyl
$5.99
Disneyland Book and Record Mickey Mouse, Brave Little Tailor 7


Disneyland Book and Record 101 Dalmatians, 1965, 7" Vinyl, 33 1/3 LP
$11.49
Disneyland Book and Record 101 Dalmatians, 1965, 7


45 RPM vinyl record spacer button
$2.5
45 RPM vinyl record spacer button picture


the world is a ghetto, war lp, vinyl album, record, collectible
$3.99
the world is a ghetto, war lp, vinyl album, record, collectible picture


Dogfish Head Record Store Day 2016 Craft Beer Pint Glass Album Vinyl NEW
$9.99
Dogfish Head Record Store Day 2016 Craft Beer Pint Glass Album Vinyl NEW picture