Your One-Stop Source For
Music Lyrics
Bass and Guitar Tabs
and More...
Music Lyrics Bass and Guitar Tabs

 

The Tabs Are Below

Learn To Read Tab
Chords Handbook
Corrections & Additions
Get Official Tab
Weezer tabs @ 911Tabs

Glorious Day

 

[This was created with TabIt for Windows version 1.53]

 

E :----------------|----------------|----------------|-----------------|

B :----------------|----------------|----------------|-----------------|

G :--2---2---2---2-|--2---2---2---2-|--2---2---2---2-|--2---2---2---2--|

D :----2-------2---|0---0---0---0---|----2-------2---|0---0---0---0----|

A :0-------0-------|----------------|0-------0-------|-----------------|

E :----------------|----------------|----------------|-----------------|

 

E :----------------|----------------|----------------|-----------------|

B :----------------|----------------|----------------|-----------------|

G :--------6-7-9-6-|--------------6-|--------6-7-9-6-|--------------6-7|

D :----------------|--9---7---9-----|----7-----------|--9---7---9------|

A :----------------|----------------|----------------|-----------------|

E :----------------|----------------|----------------|-----------------|

 

G :----------------|----------------|----------------|-----------------|

D :----------------|----------------|----------------|-----------------|

A :----------------|----------------|----------------|-----------------|

E :----------------|----------------|----------------|-----------------|

 

E :----------------|----------------|----------------|-----------------|

B :----------------|----------------|----------------|-----------------|

G :----------------|----------------|----------------|-----------------|

D :----------------|----------------|----------------|-----------------|

A :----------------|----------------|----------------|-----------------|

E :----------------|----------------|----------------|-----------------|

 

0 :----------------|----------------|----------------|-----------------|

0 :----------------|----------------|----------------|-----------------|

0 :----------------|----------------|----------------|-----------------|

0 :----------------|----------------|----------------|-----------------|

0 :----------------|----------------|----------------|-----------------|

0 :----------------|----------------|----------------|-----------------|

 

=============================================================================

 

E :----------------|----------------|--------------------------------|

B :----------------|----------------|--------------------------------|

G :--2---2---2---2-|2-2-2-2-2-2-2-2-|--------------------------------|

D :----2-------2---|0-0-0-0-0-0-0-0-|--------------------------------|

A :0-------0-------|----------------|---------------------5--5--5--5-|

E :----------------|----------------|--4----4----4--------4--4--4--4-|

 

E :----------------|----------------|--------------------------------|

B :----------------|----------------|--------------------------------|

G :6-------6-7-9-6-|--------------6-|------------------------------6-|

D :----------------|--9---7---9-----|-------9---------7------9-------|

A :----------------|----------------|--------------------------------|

E :----------------|----------------|--------------------------------|

 

G :----------------|----------------|--------------------------------|

D :----------------|----------------|--------------------------------|

A :----------------|----------------|--------------------------------|

E :----------------|----------------|--4----4----4----4---4--4--4--4-|

 

E :----------------|----------------|--------------------------------|

B :----------------|----------------|--------------------------------|

G :----------------|----------------|--------------------------------|

D :----------------|----------------|--------------------------------|

A :----------------|----------------|--------------------------------|

E :----------------|----------------|--------------------------------|

 

0 :----------------|----------------|(57)-(57)-(57)-(57)-57-57-57-57-|

0 :----------------|----------------|--------------------------------|

0 :----------------|----------------|--------------------------------|

0 :----------------|----------------|--------------------------------|

0 :----------------|----------------|(38)-(38)-(38)-(38)-38-38-38-38-|

0 :----------------|----------------|--------------------------------|

 

=============================================================================

 

E :-------------------------------------|-----------------------------|

B :-------------------------------------|-----------------------------|

G :--6----6----6----6---6--6----6----6--|-----------------------------|

D :--6----6----6----6---6--6----6----6--|-4--4--4--4--4--4----4----4--|

A :--4----4----4----4---4--4----4----4--|-4--4--4--4--4--4----4----4--|

E :--4----4----4----4---4--4----4----4--|-2--2--2--2--2--2----2----2--|

 

E :-------------------------------------|-----------------------------|

B :-------------------------------------|-----------------------------|

G :-------6----6----6---6--6----6----6--|-*---------------------------|

D :-------------------------------------|-----------------------------|

A :-------------------------------------|-----------------------------|

E :-------------------------------------|-----------------------------|

 

G :-------------------------------------|-----------------------------|

D :-------------------------------------|-----------------------------|

A :--4----4----4----4---4--4----4----4--|-----------------------------|

E :-------------------------------------|-2--2--2--2--2--2----2----2--|

 

E :------------------------2-2----------|----------------2-2----------|

B :-----------------------------2-------|---------------------2-------|

G :-------------------------------4----3|-------*---------------4----2|

D :-------------------------------------|-----------------------------|

A :-------------------------------------|-----------------------------|

E :-------------------------------------|-----------------------------|

 

0 :(57)-(57)-(57)-(57)-57-57---57---57--|49-46-46-46-46-46---46---46--|

0 :-57---57---57---57--57-57---57---57--|49-46-46-46-46-46---46---46--|

0 :-------------------------------------|-----------------------------|

0 :(38)-(38)-(38)-(38)-38-38---38---38--|------38------------38-------|

0 :-38---38---38---38--38-38---38---38--|36----38----36-36---38-------|

0 :-------------------------------------|36----------36-36------------|

 

=============================================================================

 

E :-------------------------------|

B :-------------------------------|

G :-------------------------------|

D :-7--7--7--7--7--7----7----7----|

A :-7--7--7--7--7--7----7----7----|

E :-5--5--5--5--5--5----5----5----|

 

E :-------------------------------|

B :-------------------------------|

G :-------------------------------|

D :-------------------------------|

A :-------------------------------|

E :-------------------------------|

 

G :-------------------------------|

D :-------------------------------|

A :-------------------------------|

E :-5--5--5--5--5--5----5----5----|

 

E :-------------------------------|

B :----------------------------(3)|

G :-------*--------2-2--2-2-----4-|

D :-------------------------------|

A :-------------------------------|

E :-------------------------------|

 

0 :46-46-46-46-46-46---46---46----|

0 :46-46-46-46-46-46---46---46----|

0 :-------------------------------|

0 :------38------------38---------|

0 :36----38----36-36---38---------|

0 :36----------36-36--------------|

 

=============================================================================

 

E :----------------------------------------------|

B :----------------------------------------------|

G :------------------------4---4------4-----4----|

D :-2---2------2-----2-----4---4------4-----4----|

A :-2---2------2-----2-----2---2------2-----2----|

E :-0---0------0-----0-----2---2------2-----2----|

 

E :----------------------------------------------|

B :----------------------------------------------|

G :----------------------------------------------|

D :----------------------------------------------|

A :----------------------------------------------|

E :----------------------------------------------|

 

G :----------------------------------------------|

D :----------------------------------------------|

A :------------------------2---2------2-----2----|

E :-0---0------0-----0---------------------------|

 

E :----------------------------------------------|

B :---(-3)(3)(-3)(3)---(3)---(-3)(3)(-3)(3)---(2)|

G :-----4--4---4--4-----4------4--4---4--4-----2-|

D :----------------------------------------------|

A :----------------------------------------------|

E :----------------------------------------------|

 

0 :46--46-----46----46----46--46-----46----46----|

0 :46--46-----46----46----46--46-----46----46----|

0 :----------------------------------------------|

0 :-----------38---------------------38----------|

0 :36---------38----------36--36-----38----------|

0 :36---------------------36--36-----------------|

 

=============================================================================

 

E :------------------------|------------------------|

B :------------------------|------------------------|

G :-7--7--7--7--7--7--7--7-|-6--6--6--6--6--6--6--6-|

D :-7--7--7--7--7--7--7--7-|-6--6--6--6--6--6--6--6-|

A :-5--5--5--5--5--5--5--5-|-4--4--4--4--4--4--4--4-|

E :-5--5--5--5--5--5--5--5-|-4--4--4--4--4--4--4--4-|

 

E :------------------------|------------------------|

B :------------------------|------------------------|

G :------------------------|------------------------|

D :------------------------|------------------------|

A :------------------------|------------------------|

E :------------------------|------------------------|

 

G :------------------------|------------------------|

D :------------------------|------------------------|

A :-5--5--5--5--5--5--5--5-|-4--4--4--4--4--4--4--4-|

E :------------------------|------------------------|

 

E :------------------------|------------------------|

B :-------*--2-------------|----------2--------*----|

G :-------*--------------*-|-1-----*----------------|

D :------------------------|------------------------|

A :------------------------|------------------------|

E :------------------------|------------------------|

 

0 :49-46-46-46-46-46-46-46-|46-46-46-46-46-46-46-46-|

0 :49-46-46-46-46-46-46-46-|46-46-46-46-46-46-46-46-|

0 :------------------------|------------------------|

0 :------38----------38----|------38----------38-38-|

0 :36----38----36-36-38----|36----38----36-36-38-38-|

0 :36----------36-36-------|36----------36-36-------|

 

=============================================================================

 

E :------------------------|------------------------------|

B :------------------------|------------------------------|

G :-4--4--4--4--4--4--4--4-|-4----4--4--4--4--x--x--x--6--|

D :-4--4--4--4--4--4--4--4-|-4----4--4--4--4--x--x--x--6--|

A :-2--2--2--2--2--2--2--2-|-2----2--2--2--2--x--x--x--4--|

E :-2--2--2--2--2--2--2--2-|-2----2--2--2--2--x--x--x--4--|

 

E :------------------------|------------------------------|

B :------------------------|------------------------------|

G :------------------------|------------------------------|

D :------------------------|------------------------------|

A :------------------------|------------------------------|

E :------------------------|------------------------------|

 

G :------------------------|------------------------------|

D :------------------------|------------------------------|

A :-2--2--2--2--2--2--2--2-|-2----2--2--2--2--x--x--x--4--|

E :------------------------|------------------------------|

 

E :------------------------|------------------------------|

B :-2--0--0-----0-----2--0-|------------------------------|

G :----------2-----2-------|---2--------------------------|

D :------------------------|------4--------*--------------|

A :------------------------|------------------------------|

E :------------------------|------------------------------|

 

0 :46-46-46-46-46-46-46-46-|46---46-46-46-46-46-46----49--|

0 :46-46-46-46-46-46-46-46-|46---46-46-46-46-46-46----49--|

0 :------------------------|------------------------------|

0 :------38----------38----|--------38-------------38-----|

0 :36----38----36-36-38----|36------38----36-------38-36--|

0 :36----------36-36-------|36------------36----------36--|

 

=============================================================================

 

E :------------------------|------------------------|

B :------------------------|------------------------|

G :-7--7--7--7--7--7--7--7-|-6--6--6--6--6--6--6--6-|

D :-7--7--7--7--7--7--7--7-|-6--6--6--6--6--6--6--6-|

A :-5--5--5--5--5--5--5--5-|-4--4--4--4--4--4--4--4-|

E :-5--5--5--5--5--5--5--5-|-4--4--4--4--4--4--4--4-|

 

E :------------------------|------------------------|

B :------------------------|------------------------|

G :------------------------|------------------------|

D :------------------------|------------------------|

A :------------------------|------------------------|

E :------------------------|------------------------|

 

G :------------------------|------------------------|

D :------------------------|------------------------|

A :-5--5--5--5--5--5--5--5-|-4--4--4--4--4--4--4--4-|

E :------------------------|------------------------|

 

E :------------------------|------------------------|

B :----------2--------*----|----------2--------*----|

G :-2-----*----------------|-1-----*----------------|

D :------------------------|------------------------|

A :------------------------|------------------------|

E :------------------------|------------------------|

 

0 :49-46-46-46-46-46-46-46-|46-46-46-46-46-46-46-46-|

0 :49-46-46-46-46-46-46-46-|46-46-46-46-46-46-46-46-|

0 :------------------------|------------------------|

0 :------38----------38----|------38----------38-38-|

0 :36----38----36-36-38----|36----38----36-36-38-38-|

0 :36----------36-36-------|36----------36-36-------|

 

=============================================================================

 

E :------------------------|-------------------------------|

B :------------------------|-------------------------------|

G :-4--4--4--4--4--4--4--4-|-4----4--4--4--4--4----4----4--|

D :-4--4--4--4--4--4--4--4-|-4----4--4--4--4--4----4----4--|

A :-2--2--2--2--2--2--2--2-|-2----2--2--2--2--2----2----2--|

E :-2--2--2--2--2--2--2--2-|-2----2--2--2--2--2----2----2--|

 

E :------------------------|-------------------------------|

B :------------------------|-------------------------------|

G :------------------------|-------------------------------|

D :------------------------|-------------------------------|

A :------------------------|-------------------------------|

E :------------------------|-------------------------------|

 

G :------------------------|-------------------------------|

D :------------------------|-------------------------------|

A :-2--2--2--2--2--2--2--2-|-2----2--2--2--2--2----2----2--|

E :------------------------|-------------------------------|

 

E :------------------------|------------------2-2----------|

B :-2--0--0-----0-----2--0-|-----------------------2-------|

G :----------2-----2-------|---2---------------------4----3|

D :------------------------|------4--------*---------------|

A :------------------------|-------------------------------|

E :------------------------|-------------------------------|

 

0 :46-46-46-46-46-46-46-46-|46---46-46-46-46-46---49---46--|

0 :46-46-46-46-46-46-46-46-|46---46-46-46-46-46---49---46--|

0 :------------------------|-------------------------------|

0 :------38----------38----|--------38------------38-------|

0 :36----38----36-36-38----|36------38----36-36---38-------|

0 :36----------36-36-------|36------------36-36------------|

 

=============================================================================

 

E :-----------------------------|-------------------------------|

B :-----------------------------|-------------------------------|

G :-----------------------------|-------------------------------|

D :-4--4--4--4--4--4----4----4--|-7--7--7--7--7--7----7----7----|

A :-4--4--4--4--4--4----4----4--|-7--7--7--7--7--7----7----7----|

E :-2--2--2--2--2--2----2----2--|-5--5--5--5--5--5----5----5----|

 

E :-----------------------------|-------------------------------|

B :-----------------------------|-------------------------------|

G :-----------------------------|-------------------------------|

D :-----------------------------|-------------------------------|

A :-----------------------------|-------------------------------|

E :-----------------------------|-------------------------------|

 

G :-----------------------------|-------------------------------|

D :-----------------------------|-------------------------------|

A :-----------------------------|-------------------------------|

E :-2--2--2--2--2--2----2----2--|-5--5--5--5--5--5----5----5----|

 

E :----------------2-2----------|-------------------------------|

B :---------------------2-------|----------------------------(3)|

G :-------*---------------4----2|-------*--------2-2--2-2-----4-|

D :-----------------------------|-------------------------------|

A :-----------------------------|-------------------------------|

E :-----------------------------|-------------------------------|

 

0 :49-46-46-46-46-46---46---46--|46-46-46-46-46-46---46---46----|

0 :49-46-46-46-46-46---46---46--|46-46-46-46-46-46---46---46----|

0 :-----------------------------|-------------------------------|

0 :------38------------38-------|------38------------38---------|

0 :36----38----36-36---38-------|36----38----36-36---38---------|

0 :36----------36-36------------|36----------36-36--------------|

 

=============================================================================

 

E :----------------------------------------------|

B :----------------------------------------------|

G :------------------------4---4------4-----4----|

D :-2---2------2-----2-----4---4------4-----4----|

A :-2---2------2-----2-----2---2------2-----2----|

E :-0---0------0-----0-----2---2------2-----2----|

 

E :----------------------------------------------|

B :----------------------------------------------|

G :----------------------------------------------|

D :----------------------------------------------|

A :----------------------------------------------|

E :----------------------------------------------|

 

G :----------------------------------------------|

D :----------------------------------------------|

A :------------------------2---2------2-----2----|

E :-0---0------0-----0---------------------------|

 

E :----------------------------------------------|

B :---(-3)(3)(-3)(3)---(3)---(-3)(3)(-3)(3)---(2)|

G :-----4--4---4--4-----4------4--4---4--4-----2-|

D :----------------------------------------------|

A :----------------------------------------------|

E :----------------------------------------------|

 

0 :46--46-----46----46----46--46-----46----46----|

0 :46--46-----46----46----46--46-----46----46----|

0 :----------------------------------------------|

0 :-----------38---------------------38----------|

0 :36---------38----------36--36-----38----------|

0 :36---------------------36--36-----------------|

 

=============================================================================

 

E :------------------------|------------------------|

B :------------------------|------------------------|

G :-7--7--7--7--7--7--7--7-|-6--6--6--6--6--6--6--6-|

D :-7--7--7--7--7--7--7--7-|-6--6--6--6--6--6--6--6-|

A :-5--5--5--5--5--5--5--5-|-4--4--4--4--4--4--4--4-|

E :-5--5--5--5--5--5--5--5-|-4--4--4--4--4--4--4--4-|

 

E :------------------------|------------------------|

B :------------------------|------------------------|

G :------------------------|------------------------|

D :------------------------|------------------------|

A :------------------------|------------------------|

E :------------------------|------------------------|

 

G :------------------------|------------------------|

D :------------------------|------------------------|

A :-5--5--5--5--5--5--5--5-|-4--4--4--4--4--4--4--4-|

E :------------------------|------------------------|

 

E :------------------------|------------------------|

B :-------*--2-------------|----------2--------*----|

G :-------*--------------*-|-1-----*----------------|

D :------------------------|------------------------|

A :------------------------|------------------------|

E :------------------------|------------------------|

 

0 :49-46-46-46-46-46-46-46-|49-46-46-46-46-46-46-46-|

0 :49-46-46-46-46-46-46-46-|49-46-46-46-46-46-46-46-|

0 :------------------------|------------------------|

0 :------38----------38----|------38----------38-38-|

0 :36----38----36-36-38----|36----38----36-36-38-38-|

0 :36----------36-36-------|36----------36-36-------|

 

=============================================================================

 

E :------------------------|------------------------------|

B :------------------------|------------------------------|

G :-4--4--4--4--4--4--4--4-|-4----4--4--4--4--x--x--x--6--|

D :-4--4--4--4--4--4--4--4-|-4----4--4--4--4--x--x--x--6--|

A :-2--2--2--2--2--2--2--2-|-2----2--2--2--2--x--x--x--4--|

E :-2--2--2--2--2--2--2--2-|-2----2--2--2--2--x--x--x--4--|

 

E :------------------------|------------------------------|

B :------------------------|------------------------------|

G :------------------------|------------------------------|

D :------------------------|------------------------------|

A :------------------------|------------------------------|

E :------------------------|------------------------------|

 

G :------------------------|------------------------------|

D :------------------------|------------------------------|

A :-2--2--2--2--2--2--2--2-|-2----2--2--2--2--x--x--x--4--|

E :------------------------|------------------------------|

 

E :------------------------|------------------------------|

B :-2--0--0-----0-----2--0-|------------------------------|

G :----------2-----2-------|---2--------------------------|

D :------------------------|------4--------*--------------|

A :------------------------|------------------------------|

E :------------------------|------------------------------|

 

0 :46-46-46-46-46-46-46-46-|46---46-46-46-46-46-46----49--|

0 :46-46-46-46-46-46-46-46-|46---46-46-46-46-46-46----49--|

0 :------------------------|------------------------------|

0 :------38----------38----|--------38-------------38-----|

0 :36----38----36-36-38----|36------38----36-------38-36--|

0 :36----------36-36-------|36------------36----------36--|

 

=============================================================================

 

E :------------------------|------------------------|

B :------------------------|------------------------|

G :-7--7--7--7--7--7--7--7-|-6--6--6--6--6--6--6--6-|

D :-7--7--7--7--7--7--7--7-|-6--6--6--6--6--6--6--6-|

A :-5--5--5--5--5--5--5--5-|-4--4--4--4--4--4--4--4-|

E :-5--5--5--5--5--5--5--5-|-4--4--4--4--4--4--4--4-|

 

E :------------------------|------------------------|

B :------------------------|------------------------|

G :------------------------|------------------------|

D :------------------------|------------------------|

A :------------------------|------------------------|

E :------------------------|------------------------|

 

G :------------------------|------------------------|

D :------------------------|------------------------|

A :-5--5--5--5--5--5--5--5-|-4--4--4--4--4--4--4--4-|

E :------------------------|------------------------|

 

E :------------------------|------------------------|

B :----------2--------*----|----------2--------*----|

G :-2-----*----------------|-1-----*----------------|

D :------------------------|------------------------|

A :------------------------|------------------------|

E :------------------------|------------------------|

 

0 :49-46-46-46-46-46-46-46-|46-46-46-46-46-46-46-46-|

0 :49-46-46-46-46-46-46-46-|46-46-46-46-46-46-46-46-|

0 :------------------------|------------------------|

0 :------38----------38----|------38----------38-38-|

0 :36----38----36-36-38----|36----38----36-36-38-38-|

0 :36----------36-36-------|36----------36-36-------|

 

=============================================================================

 

E :------------------------|--------------------------------|

B :------------------------|--------------------------------|

G :-4--4--4--4--4--4--4--4-|-4----4--4--4-----4--4--4-----4-|

D :-4--4--4--4--4--4--4--4-|-4----4--4--4-----4--4--4-----4-|

A :-2--2--2--2--2--2--2--2-|-2----2--2--2-----2--2--2-----2-|

E :-2--2--2--2--2--2--2--2-|-2----2--2--2-----2--2--2-----2-|

 

E :------------------------|--------------------------------|

B :------------------------|--------------------------------|

G :------------------------|--------------------------------|

D :------------------------|--------------------------------|

A :------------------------|--------------------------------|

E :------------------------|--------------------------------|

 

G :------------------------|--------------------------------|

D :------------------------|--------------------------------|

A :-2--2--2--2--2--2--2--2-|-2----2--2--2-----2--2--2-----2-|

E :------------------------|--------------------------------|

 

E :------------------------|--------------------------------|

B :-2--0--0-----0-----2--0-|--------------------------------|

G :----------2-----2-------|---2----------------------------|

D :------------------------|------4-----------*-------------|

A :------------------------|--------------------------------|

E :------------------------|--------------------------------|

 

0 :46-46-46-46-46-46-46-46-|46---46-46----------------------|

0 :46-46-46-46-46-46-46-46-|46---46-46----------------------|

0 :------------------------|--------------------------------|

0 :------38----------38----|--------38-38-38-38-47-38-38-38-|

0 :36----38----36-36-38----|36---36-38-38-38-38-47-38-38-38-|

0 :36----------36-36-------|36---36-------------------------|

 

=============================================================================

 

E :----------------------------|------------------------|

B :----------------------------|------------------------|

G :----------------------------|-7--7--7--7--7--7--7--7-|

D :-7--7--7--7------7--7--7--7-|-7--7--7--7--7--7--7--7-|

A :-7--7--7--7------7--7--7--7-|-5--5--5--5--5--5--5--5-|

E :-5--5--5--5------5--5--5--5-|-5--5--5--5--5--5--5--5-|

 

E :----------------------------|------------------------|

B :----------------------------|------------------------|

G :-----------------6--7--9--6-|----------------------6-|

D :----------------------------|----9-----7-----9-------|

A :----------------------------|------------------------|

E :----------------------------|------------------------|

 

G :----------------------------|------------------------|

D :----------------------------|------------------------|

A :----------------------------|-5--5--5--5--5--5--5--5-|

E :-5--5--5--5------5--5--5--5-|------------------------|

 

E :-----------------------0----|------------------------|

B :-----------------2--3-----2-|----------------------2-|

G :----------------------------|----4-----2-----4-------|

D :----------------------------|------------------------|

A :----------------------------|------------------------|

E :----------------------------|------------------------|

 

0 :49-57-57-57-----57-57-57-57-|57-57-57-57-57-57-57-57-|

0 :49-57-57-57-----57-57-57-57-|57-57-57-57-57-57-57-57-|

0 :----------------------------|------------------------|

0 :------38--------------38----|------38----------38-38-|

0 :36----38----(38)36-36-38----|36----38----36-36-38-38-|

0 :36--------------36-36-------|36----------36-36-------|

 

=============================================================================

 

E :------------------------|-----------------------------|

B :------------------------|-----------------------------|

G :------------------------|-7--7--7--7------7--7--7--7--|

D :-7--7--7--7--7--7--7--7-|-7--7--7--7------7--7--7--7--|

A :-7--7--7--7--7--7--7--7-|-5--5--5--5------5--5--5--5--|

E :-5--5--5--5--5--5--5--5-|-5--5--5--5------5--5--5--5--|

 

E :------------------------|-----------------------------|

B :------------------------|-----------------------------|

G :-------------6--7--9--6-|--------------------------6-7|

D :-------7----------------|----9-----7---------9--------|

A :------------------------|-----------------------------|

E :------------------------|-----------------------------|

 

G :------------------------|-----------------------------|

D :------------------------|-----------------------------|

A :------------------------|-5--5--5--5------5--5--5--5--|

E :-5--5--5--5--5--5--5--5-|-----------------------------|

 

E :-------------------0----|-----------------------------|

B :-------*-----2--3-----2-|--------------------------2-3|

G :------------------------|----4-----2---------4--------|

D :------------------------|-----------------------------|

A :------------------------|-----------------------------|

E :------------------------|-----------------------------|

 

0 :57-57-57-57-57-57-57-57-|57-57-57-57-----57-57-57-57--|

0 :57-57-57-57-57-57-57-57-|57-57-57-57-----57-57-57-57--|

0 :------------------------|-----------------------------|

0 :------38----------38----|------38--------------38-38--|

0 :36----38----36-36-38----|36----38----(38)36-36-38-38--|

0 :36----------36-36-------|36--------------36-36--------|

 

=============================================================================

 

E :------------------------|------------------------|

B :------------------------|------------------------|

G :------------------------|-7--7--7--7--7--7--7--7-|

D :-7--7--7--7--7--7--7--7-|-7--7--7--7--7--7--7--7-|

A :-7--7--7--7--7--7--7--7-|-5--5--5--5--5--5--5--5-|

E :-5--5--5--5--5--5--5--5-|-5--5--5--5--5--5--5--5-|

 

E :------------------------|------------------------|

B :------------------------|------------------------|

G :-6-----------6--7--9--6-|----------------------6-|

D :------------------------|----9-----7-----9-------|

A :------------------------|------------------------|

E :------------------------|------------------------|

 

G :------------------------|------------------------|

D :------------------------|------------------------|

A :------------------------|-5--5--5--5--5--5--5--5-|

E :-5--5--5--5--5--5--5--5-|------------------------|

 

E :------------------------|------------------------|

B :-2-----*-----2--3--5--2-|----------------------2-|

G :------------------------|----4-----2-----4-------|

D :------------------------|------------------------|

A :------------------------|------------------------|

E :------------------------|------------------------|

 

0 :49-57-57-57-57-57-57-57-|57-57-57-57-57-57-57-57-|

0 :49-57-57-57-57-57-57-57-|57-57-57-57-57-57-57-57-|

0 :------------------------|------------------------|

0 :------38----------38----|------38----------38-38-|

0 :36----38----36-36-38----|36----38----36-36-38-38-|

0 :36----------36-36-------|36----------36-36-------|

 

=============================================================================

 

E :--------------------------------|

B :--------------------------------|

G :--------------------------------|

D :--6----6----6----6---6--6--6--6-|

A :--6----6----6----6---5--5--5--5-|

E :--4----4----4----4---4--4--4--4-|

 

E :--------------------------------|

B :--------------------------------|

G :------------------------------6-|

D :-------9---------7------9-------|

A :--------------------------------|

E :--------------------------------|

 

G :--------------------------------|

D :--------------------------------|

A :--------------------------------|

E :--4----4----4----4---4--4--4--4-|

 

E :--------------------------------|

B :------------------------------2-|

G :-------4---------2------4-------|

D :--------------------------------|

A :--------------------------------|

E :--------------------------------|

 

0 :(57)-(57)-(57)-(57)-57-57-57-57-|

0 :--------------------------------|

0 :--------------------------------|

0 :--------------------------------|

0 :(38)-(38)-(38)-(38)-38-38-38-38-|

0 :--------------------------------|

 

=============================================================================

 

E :-------------------------------------|-----------------------------|

B :-------------------------------------|-----------------------------|

G :--6----6----6----6---6--6----6----6--|-----------------------------|

D :--6----6----6----6---6--6----6----6--|-4--4--4--4--4--4----4----4--|

A :--4----4----4----4---4--4----4----4--|-4--4--4--4--4--4----4----4--|

E :--4----4----4----4---4--4----4----4--|-2--2--2--2--2--2----2----2--|

 

E :-------------------------------------|-----------------------------|

B :------------------------7-7----------|----------------7-7----------|

G :--6----6----6----6---6-------6-------|---------------------6-------|

D :-------------------------------9----8|-----------------------9----7|

A :-------------------------------------|-----------------------------|

E :-------------------------------------|-----------------------------|

 

G :-------------------------------------|-----------------------------|

D :-------------------------------------|-----------------------------|

A :--4----4----4----4---4--4----4----4--|-----------------------------|

E :-------------------------------------|-2--2--2--2--2--2----2----2--|

 

E :-------------------------------------|-----------------------------|

B :---------------------*---------------|-----------------------------|

G :-------------------------------------|-----------------------------|

D :-------------------------------------|-----------------------------|

A :-------------------------------------|-----------------------------|

E :-------------------------------------|-----------------------------|

 

0 :(57)-(57)-(57)-(57)-57-57---57---57--|49-46-46-46-46-46---46---46--|

0 :-57---57---57---57--57-57---57---57--|49-46-46-46-46-46---46---46--|

0 :-------------------------------------|-----------------------------|

0 :(38)-(38)-(38)-(38)-38-38---38---38--|------38------------38-------|

0 :-38---38---38---38--38-38---38---38--|36----38----36-36---38-------|

0 :-------------------------------------|36----------36-36------------|

 

=============================================================================

 

E :------------------------------|

B :------------------------------|

G :------------------------------|

D :-7--7--7--7--7--7----7----7---|

A :-7--7--7--7--7--7----7----7---|

E :-5--5--5--5--5--5----5----5---|

 

E :------------------------------|

B :----------------------------12|

G :------------------------------|

D :----------------7-7--7-7-----9|

A :------------------------------|

E :------------------------------|

 

G :------------------------------|

D :------------------------------|

A :------------------------------|

E :-5--5--5--5--5--5----5----5---|

 

E :------------------------------|

B :------------------------------|

G :------------------------------|

D :------------------------------|

A :------------------------------|

E :------------------------------|

 

0 :46-46-46-46-46-46---46---46---|

0 :46-46-46-46-46-46---46---46---|

0 :------------------------------|

0 :------38------------38--------|

0 :36----38----36-36---38--------|

0 :36----------36-36-------------|

 

=============================================================================

 

E :-----------------------------------------|------------------------|

B :-----------------------------------------|------------------------|

G :----------------------4--4-----4-----4---|-7--7--7--7--7--7--7--7-|

D :-2--2-----2-----2-----4--4-----4-----4---|-7--7--7--7--7--7--7--7-|

A :-2--2-----2-----2-----2--2-----2-----2---|-5--5--5--5--5--5--5--5-|

E :-0--0-----0-----0-----2--2-----2-----2---|-5--5--5--5--5--5--5--5-|

 

E :-----------------------------------------|------------------------|

B :---12-12-12-12----12----12-12-12-12----10|------------------------|

G :-----------------------------------------|------------------------|

D :----9--9--9--9-----9-----9--9--9--9-----7|------------------------|

A :-----------------------------------------|------------------------|

E :-----------------------------------------|------------------------|

 

G :-----------------------------------------|------------------------|

D :-----------------------------------------|------------------------|

A :----------------------2--2-----2-----2---|-5--5--5--5--5--5--5--5-|

E :-0--0-----0-----0------------------------|------------------------|

 

E :-----------------------------------------|------------------------|

B :-----------------------------------------|----------2-------------|

G :-----------------------------------------|----------------------*-|

D :-----------------------------------------|------------------------|

A :-----------------------------------------|------------------------|

E :-----------------------------------------|------------------------|

 

0 :46-46----46----46----46-46----46----46---|49-46-46-46-46-46-46-46-|

0 :46-46----46----46----46-46----46----46---|49-46-46-46-46-46-46-46-|

0 :-----------------------------------------|------------------------|

0 :---------38-------------------38---------|------38----------38----|

0 :36-------38----------36-36----38---------|36----38----36-36-38----|

0 :36-------------------36-36---------------|36----------36-36-------|

 

=============================================================================

 

E :------------------------|------------------------|

B :------------------------|------------------------|

G :-6--6--6--6--6--6--6--6-|-4--4--4--4--4--4--4--4-|

D :-6--6--6--6--6--6--6--6-|-4--4--4--4--4--4--4--4-|

A :-4--4--4--4--4--4--4--4-|-2--2--2--2--2--2--2--2-|

E :-4--4--4--4--4--4--4--4-|-2--2--2--2--2--2--2--2-|

 

E :------------------------|------------------------|

B :-*----------------------|------------------------|

G :------------------------|------------------------|

D :-*----------------------|------------------------|

A :------------------------|------------------------|

E :------------------------|------------------------|

 

G :------------------------|------------------------|

D :------------------------|------------------------|

A :-4--4--4--4--4--4--4--4-|-2--2--2--2--2--2--2--2-|

E :------------------------|------------------------|

 

E :------------------------|------------------------|

B :----------2--------*----|-2--0--0-----0-----2--0-|

G :-1-----*----------------|----------2-----2-------|

D :------------------------|------------------------|

A :------------------------|------------------------|

E :------------------------|------------------------|

 

0 :49-46-46-46-46-46-46-46-|46-46-46-46-46-46-46-46-|

0 :49-46-46-46-46-46-46-46-|46-46-46-46-46-46-46-46-|

0 :------------------------|------------------------|

0 :------38----------38-38-|------38----------38----|

0 :36----38----36-36-38-38-|36----38----36-36-38----|

0 :36----------36-36-------|36----------36-36-------|

 

=============================================================================

 

E :------------------------------|------------------------|

B :------------------------------|------------------------|

G :-4----4--4--4--4--x--x--x--6--|-7--7--7--7--7--7--7--7-|

D :-4----4--4--4--4--x--x--x--6--|-7--7--7--7--7--7--7--7-|

A :-2----2--2--2--2--x--x--x--4--|-5--5--5--5--5--5--5--5-|

E :-2----2--2--2--2--x--x--x--4--|-5--5--5--5--5--5--5--5-|

 

E :------------------------------|------------------------|

B :------------------------------|------------------------|

G :------------------------------|------------------------|

D :------------------------------|------------------------|

A :------------------------------|------------------------|

E :------------------------------|------------------------|

 

G :------------------------------|------------------------|

D :------------------------------|------------------------|

A :-2----2--2--2--2--x--x--x--4--|-5--5--5--5--5--5--5--5-|

E :------------------------------|------------------------|

 

E :------------------------------|------------------------|

B :------------------------------|----------2--------*----|

G :---2--------------------------|-2-----*----------------|

D :------4--------*--------------|------------------------|

A :------------------------------|------------------------|

E :------------------------------|------------------------|

 

0 :46---46-46-46-46-46-46----49--|49-46-46-46-46-46-46-46-|

0 :46---46-46-46-46-46-46----49--|49-46-46-46-46-46-46-46-|

0 :------------------------------|------------------------|

0 :--------38-------------38-----|------38----------38----|

0 :36------38----36-------38-36--|36----38----36-36-38----|

0 :36------------36----------36--|36----------36-36-------|

 

=============================================================================

 

E :------------------------|------------------------|

B :------------------------|------------------------|

G :-6--6--6--6--6--6--6--6-|-4--4--4--4--4--4--4--4-|

D :-6--6--6--6--6--6--6--6-|-4--4--4--4--4--4--4--4-|

A :-4--4--4--4--4--4--4--4-|-2--2--2--2--2--2--2--2-|

E :-4--4--4--4--4--4--4--4-|-2--2--2--2--2--2--2--2-|

 

E :------------------------|------------------------|

B :------------------------|------------------------|

G :------------------------|------------------------|

D :------------------------|------------------------|

A :------------------------|------------------------|

E :------------------------|------------------------|

 

G :------------------------|------------------------|

D :------------------------|------------------------|

A :-4--4--4--4--4--4--4--4-|-2--2--2--2--2--2--2--2-|

E :------------------------|------------------------|

 

E :------------------------|------------------------|

B :----------2--------*----|-2--0--0-----0-----2--0-|

G :-1-----*----------------|----------2-----2-------|

D :------------------------|------------------------|

A :------------------------|------------------------|

E :------------------------|------------------------|

 

0 :46-46-46-46-46-46-46-46-|46-46-46-46-46-46-46-46-|

0 :46-46-46-46-46-46-46-46-|46-46-46-46-46-46-46-46-|

0 :------------------------|------------------------|

0 :------38----------38-38-|------38----------38----|

0 :36----38----36-36-38-38-|36----38----36-36-38----|

0 :36----------36-36-------|36----------36-36-------|

 

=============================================================================

 

E :--------------------------------|----------------------------|

B :--------------------------------|----------------------------|

G :-4----4--4--4-----4--4--4-----4-|----------------------------|

D :-4----4--4--4-----4--4--4-----4-|-7--7--7--7------7--7--7--7-|

A :-2----2--2--2-----2--2--2-----2-|-7--7--7--7------7--7--7--7-|

E :-2----2--2--2-----2--2--2-----2-|-5--5--5--5------5--5--5--5-|

 

E :--------------------------------|----------------------------|

B :--------------------------------|----------------------------|

G :--------------------------------|-----------------6--7--9--6-|

D :--------------------------------|----------------------------|

A :--------------------------------|----------------------------|

E :--------------------------------|----------------------------|

 

G :--------------------------------|----------------------------|

D :--------------------------------|----------------------------|

A :-2----2--2--2-----2--2--2-----2-|----------------------------|

E :--------------------------------|-5--5--5--5------5--5--5--5-|

 

E :--------------------------------|-----------------------0----|

B :--------------------------------|-----------------2--3-----2-|

G :---2----------------------------|----------------------------|

D :------4-----------*-------------|----------------------------|

A :--------------------------------|----------------------------|

E :--------------------------------|----------------------------|

 

0 :46---46-46----------------------|49-57-57-57-----57-57-57-57-|

0 :46---46-46----------------------|49-57-57-57-----57-57-57-57-|

0 :--------------------------------|----------------------------|

0 :--------38-38-38-38-47-38-38-38-|------38--------------38----|

0 :36---36-38-38-38-38-47-38-38-38-|36----38----(38)36-36-38----|

0 :36---36-------------------------|36--------------36-36-------|

 

=============================================================================

 

E :------------------------|------------------------|

B :------------------------|------------------------|

G :-7--7--7--7--7--7--7--7-|------------------------|

D :-7--7--7--7--7--7--7--7-|-7--7--7--7--7--7--7--7-|

A :-5--5--5--5--5--5--5--5-|-7--7--7--7--7--7--7--7-|

E :-5--5--5--5--5--5--5--5-|-5--5--5--5--5--5--5--5-|

 

E :------------------------|------------------------|

B :------------------------|------------------------|

G :----------------------6-|-------------6--7--9--6-|

D :----9-----7-----9-------|-------7----------------|

A :------------------------|------------------------|

E :------------------------|------------------------|

 

G :------------------------|------------------------|

D :------------------------|------------------------|

A :-5--5--5--5--5--5--5--5-|------------------------|

E :------------------------|-5--5--5--5--5--5--5--5-|

 

E :------------------------|-------------------0----|

B :----------------------2-|-------*-----2--3-----2-|

G :----4-----2-----4-------|------------------------|

D :------------------------|------------------------|

A :------------------------|------------------------|

E :------------------------|------------------------|

 

0 :57-57-57-57-57-57-57-57-|57-57-57-57-57-57-57-57-|

0 :57-57-57-57-57-57-57-57-|57-57-57-57-57-57-57-57-|

0 :------------------------|------------------------|

0 :------38----------38-38-|------38----------38----|

0 :36----38----36-36-38-38-|36----38----36-36-38----|

0 :36----------36-36-------|36----------36-36-------|

 

=============================================================================

 

E :-----------------------------|------------------------|

B :-----------------------------|------------------------|

G :-7--7--7--7------7--7--7--7--|------------------------|

D :-7--7--7--7------7--7--7--7--|-7--7--7--7--7--7--7--7-|

A :-5--5--5--5------5--5--5--5--|-7--7--7--7--7--7--7--7-|

E :-5--5--5--5------5--5--5--5--|-5--5--5--5--5--5--5--5-|

 

E :-----------------------------|------------------------|

B :-----------------------------|------------------------|

G :--------------------------6-7|-6-----------6--7--9--6-|

D :----9-----7---------9--------|------------------------|

A :-----------------------------|------------------------|

E :-----------------------------|------------------------|

 

G :-----------------------------|------------------------|

D :-----------------------------|------------------------|

A :-5--5--5--5------5--5--5--5--|------------------------|

E :-----------------------------|-5--5--5--5--5--5--5--5-|

 

E :-----------------------------|------------------------|

B :--------------------------2-3|-2-----*-----2--3--5--2-|

G :----4-----2---------4--------|------------------------|

D :-----------------------------|------------------------|

A :-----------------------------|------------------------|

E :-----------------------------|------------------------|

 

0 :57-57-57-57-----57-57-57-57--|49-57-57-57-57-57-57-57-|

0 :57-57-57-57-----57-57-57-57--|49-57-57-57-57-57-57-57-|

0 :-----------------------------|------------------------|

0 :------38--------------38-38--|------38----------38----|

0 :36----38----(38)36-36-38-38--|36----38----36-36-38----|

0 :36--------------36-36--------|36----------36-36-------|

 

=============================================================================

 

E :------------------------|--------------------------------|

B :------------------------|--------------------------------|

G :-7--7--7--7--7--7--7--7-|--------------------------------|

D :-7--7--7--7--7--7--7--7-|--6----6----6----6---6--6--6--6-|

A :-5--5--5--5--5--5--5--5-|--6----6----6----6---5--5--5--5-|

E :-5--5--5--5--5--5--5--5-|--4----4----4----4---4--4--4--4-|

 

E :------------------------|--------------------------------|

B :------------------------|--------------------------------|

G :----------------------6-|------------------------------6-|

D :----9-----7-----9-------|-------9---------7------9-------|

A :------------------------|--------------------------------|

E :------------------------|--------------------------------|

 

G :------------------------|--------------------------------|

D :------------------------|--------------------------------|

A :-5--5--5--5--5--5--5--5-|--------------------------------|

E :------------------------|--4----4----4----4---4--4--4--4-|

 

E :------------------------|--------------------------------|

B :----------------------2-|------------------------------2-|

G :----4-----2-----4-------|-------4---------2------4-------|

D :------------------------|--------------------------------|

A :------------------------|--------------------------------|

E :------------------------|--------------------------------|

 

0 :57-57-57-57-57-57-57-57-|(57)-(57)-(57)-(57)-57-57-57-57-|

0 :57-57-57-57-57-57-57-57-|--------------------------------|

0 :------------------------|--------------------------------|

0 :------38----------38----|--------------------------------|

0 :36----38----36-36-38----|(38)-(38)-(38)-(38)-38-38-38-38-|

0 :36----------36-36-------|--------------------------------|

 

=============================================================================

 

E :-------------------------------------|-----------------------------|

B :-------------------------------------|-----------------------------|

G :--6----6----6----6---6--6----6----6--|-----------------------------|

D :--6----6----6----6---6--6----6----6--|-4--4--4--4--4--4----4----4--|

A :--4----4----4----4---4--4----4----4--|-4--4--4--4--4--4----4----4--|

E :--4----4----4----4---4--4----4----4--|-2--2--2--2--2--2----2----2--|

 

E :-------------------------------------|-----------------------------|

B :-------------------------------------|-----------------------------|

G :--6----6----6----6---6--6----6----6--|-*---------------------------|

D :-------------------------------------|-----------------------------|

A :-------------------------------------|-----------------------------|

E :-------------------------------------|-----------------------------|

 

G :-------------------------------------|-----------------------------|

D :-------------------------------------|-----------------------------|

A :--4----4----4----4---4--4----4----4--|-----------------------------|

E :-------------------------------------|-2--2--2--2--2--2----2----2--|

 

E :------------------------2-2----------|----------------2-2----------|

B :---------------------*-------2-------|---------------------2-------|

G :-------------------------------4----3|-------*---------------4----2|

D :-------------------------------------|-----------------------------|

A :-------------------------------------|-----------------------------|

E :-------------------------------------|-----------------------------|

 

0 :(57)-(57)-(57)-(57)-57-57---57---57--|49-46-46-46-46-46---46---46--|

0 :-57---57---57---57--57-57---57---57--|49-46-46-46-46-46---46---46--|

0 :-------------------------------------|-----------------------------|

0 :(38)-(38)-(38)-(38)-38-38---38---38--|------38------------38-------|

0 :-38---38---38---38--38-38---38---38--|36----38----36-36---38-------|

0 :-------------------------------------|36----------36-36------------|

 

=============================================================================

 

E :-------------------------------|

B :-------------------------------|

G :-------------------------------|

D :-7--7--7--7--7--7----7----7----|

A :-7--7--7--7--7--7----7----7----|

E :-5--5--5--5--5--5----5----5----|

 

E :-------------------------------|

B :-------------------------------|

G :-------------------------------|

D :-------------------------------|

A :-------------------------------|

E :-------------------------------|

 

G :-------------------------------|

D :-------------------------------|

A :-------------------------------|

E :-5--5--5--5--5--5----5----5----|

 

E :-------------------------------|

B :----------------------------(3)|

G :-------*--------2-2--2-2-----4-|

D :-------------------------------|

A :-------------------------------|

E :-------------------------------|

 

0 :46-46-46-46-46-46---46---46----|

0 :46-46-46-46-46-46---46---46----|

0 :-------------------------------|

0 :------38------------38---------|

0 :36----38----36-36---38---------|

0 :36----------36-36--------------|

 

=============================================================================

 

E :----------------------------------------------|

B :----------------------------------------------|

G :------------------------4---4------4-----4----|

D :-2---2------2-----2-----4---4------4-----4----|

A :-2---2------2-----2-----2---2------2-----2----|

E :-0---0------0-----0-----2---2------2-----2----|

 

E :----------------------------------------------|

B :----------------------------------------------|

G :----------------------------------------------|

D :----------------------------------------------|

A :----------------------------------------------|

E :----------------------------------------------|

 

G :----------------------------------------------|

D :----------------------------------------------|

A :------------------------2---2------2-----2----|

E :-0---0------0-----0---------------------------|

 

E :----------------------------------------------|

B :---(-3)(3)(-3)(3)---(3)---(-3)(3)(-3)(3)---(2)|

G :-----4--4---4--4-----4------4--4---4--4-----2-|

D :----------------------------------------------|

A :----------------------------------------------|

E :----------------------------------------------|

 

0 :46--46-----46----46----46--46-----46----46----|

0 :46--46-----46----46----46--46-----46----46----|

0 :----------------------------------------------|

0 :-----------38---------------------38----------|

0 :36---------38----------36--36-----38----------|

0 :36---------------------36--36-----------------|

 

=============================================================================

 

E :--------------------------------------|

B :--------------------------------------|

G :-7--7--7--7------7--7-----7-----7-----|

D :-7--7--7--7------7--7-----7-----7-----|

A :-5--5--5--5------5--5-----5-----5-----|

E :-5--5--5--5------5--5-----5-----5-----|

 

E :--------------------------------------|

B :-------------------10-10-10-10-----12-|

G :--------------------------------------|

D :--------------------7--7--7--7------9-|

A :--------------------------------------|

E :--------------------------------------|

 

G :--------------------------------------|

D :--------------------------------------|

A :-5--5--5--5------5--5-----5-----5-----|

E :--------------------------------------|

 

E :--------------------------------------|

B :-------*--------------------------(-3)|

G :-------*------------2--2--2--2------4-|

D :--------------------------------------|

A :--------------------------------------|

E :--------------------------------------|

 

0 :49-46-46-46-----46-46----46----46-----|

0 :49-46-46-46-----46-46----46----46-----|

0 :--------------------------------------|

0 :------38-----------------38-----------|

0 :36----38----(38)36-36----38-----------|

0 :36--------------36-36-----------------|

 

=============================================================================

 

E :----------------------------------------------------|

B :----------------------------------------------------|

G :---------------------------4---4-------4------4-----|

D :-2---2-------2------2------4---4-------4------4-----|

A :-2---2-------2------2------2---2-------2------2-----|

E :-0---0-------0------0------2---2-------2------2-----|

 

E :----------------------------------------------------|

B :----12--12--12--12-----12-----12--12--12--12-----10-|

G :----------------------------------------------------|

D :-----9---9---9---9------9------9---9---9---9------7-|

A :----------------------------------------------------|

E :----------------------------------------------------|

 

G :----------------------------------------------------|

D :----------------------------------------------------|

A :---------------------------2---2-------2------2-----|

E :-0---0-------0------0-------------------------------|

 

E :----------------------------------------------------|

B :---(-3)(-3)(-3)(-3)---(-3)---(-3)(-3)(-3)(-3)---(-2)|

G :-----4---4---4---4------4------4---4---4---4------2-|

D :----------------------------------------------------|

A :----------------------------------------------------|

E :----------------------------------------------------|

 

0 :46--46------46-----46-----46--46------46-----46-----|

0 :46--46------46-----46-----46--46------46-----46-----|

0 :----------------------------------------------------|

0 :------------38------------------------38------------|

0 :36----------38--------(38)36--36------38------------|

0 :36------------------------36--36--------------------|

 

=============================================================================

 

E :--------------------------------------|

B :--------------------------------------|

G :-7--7--7--7------7--7-----7-----7-----|

D :-7--7--7--7------7--7-----7-----7-----|

A :-5--5--5--5------5--5-----5-----5-----|

E :-5--5--5--5------5--5-----5-----5-----|

 

E :--------------------------------------|

B :-------------------10-10-10-10-----12-|

G :--------------------------------------|

D :--------------------7--7--7--7------9-|

A :--------------------------------------|

E :--------------------------------------|

 

G :--------------------------------------|

D :--------------------------------------|

A :-5--5--5--5------5--5-----5-----5-----|

E :--------------------------------------|

 

E :--------------------------------------|

B :-------*--------------------------(-3)|

G :-------*------------2--2--2--2------4-|

D :--------------------------------------|

A :--------------------------------------|

E :--------------------------------------|

 

0 :49-46-46-46-----46-46----46----46-----|

0 :49-46-46-46-----46-46----46----46-----|

0 :--------------------------------------|

0 :------38-----------------38-----------|

0 :36----38----(38)36-36----38-----------|

0 :36--------------36-36-----------------|

 

=============================================================================

 

E :---------------------------------------------------|

B :---------------------------------------------------|

G :---------------------------4---4-------4-----4-----|

D :-2---2-------2------2------4---4-------4-----4-----|

A :-2---2-------2------2------2---2-------2-----2-----|

E :-0---0-------0------0------2---2-------2-----2-----|

 

E :---------------------------------------------------|

B :----12--12--12--12-----12-----12--12--12--12----10-|

G :---------------------------------------------------|

D :-----9---9---9---9------9------9---9---9---9-----7-|

A :---------------------------------------------------|

E :---------------------------------------------------|

 

G :---------------------------------------------------|

D :---------------------------------------------------|

A :---------------------------2---2-------2-----2-----|

E :-0---0-------0------0------------------------------|

 

E :---------------------------------------------------|

B :---(-3)(-3)(-3)(-3)---(-3)---(-3)(-3)(-3)(-3)--(-2)|

G :-----4---4---4---4------4------4---4---4---4-----2-|

D :---------------------------------------------------|

A :---------------------------------------------------|

E :---------------------------------------------------|

 

0 :46--46------46-----46-----46--46--46------49-------|

0 :46--46------46-----46-----46--46--46------49-------|

0 :---------------------------------------------------|

0 :------------38------------------------38-----------|

0 :36----------38------------36----------38--36-------|

0 :36------------------------36--------------36-------|

 

=============================================================================

 

E :------------------------------|-----------------|

B :------------------------------|-----------------|

G :-7--7--7--7-----7--7--7-----7-|-----------------|

D :-7--7--7--7-----7--7--7-----7-|-7---------------|

A :-5--5--5--5-----5--5--5-----5-|-7---------------|

E :-5--5--5--5-----5--5--5-----5-|-5---------------|

 

E :------------------------------|-----------------|

B :---------14-------------------|14---------------|

G :------------------------------|-----------------|

D :---------11-------------------|11---------------|

A :------------------------------|-----------------|

E :------------------------------|-----------------|

 

G :------------------------------|-----------------|

D :------------------------------|-----------------|

A :-5--5--5--5-----5--5--5-----5-|-----------------|

E :------------------------------|-5---------------|

 

E :------------------------------|-----------------|

B :-------*--2-------------------|-*---------------|

G :-------*----------------------|-----------------|

D :------------------------------|-----------------|

A :------------------------------|-----------------|

E :------------------------------|-----------------|

 

0 :46-46-46----------------------|49---------------|

0 :46-46-46----------------------|49---------------|

0 :------------------------------|-----------------|

0 :------38-38-38-38-38-38-38-38-|-----------------|

0 :36-36-38-38-38-38-38-38-38-38-|36---------------|

0 :36-36-------------------------|36---------------|

 

 

Return to my to my Weezer tabs page

The Tablature is Copyright its respective owners.

Sign Up For My Newsletter
Subscribe | Unsubscribe

Site Map | Disclaimer | Privacy Policy | Media Kit | Submissions/Corrections

Website © 2000-2014 mattsmusicpage.com. All rights reserved.

Legal & DMCA: Matt's Music Page has been providing lyrics and tabs in a legal way, paying royalties each year to a few organizations. Then, all lyrics and tabs were removed from the site. Now, there's a new owner to the site, which purchased it August 26, 2014, and he is in negotiation to obtain licensing from BMI at the moment. If you have a specific DMCA request -- please do not hesitate to contact me via the contact button on top. I will do my very best to keep this site fully legal.

Get our toolbar!