Your One-Stop Source For
Music Lyrics
Bass and Guitar Tabs
and More...
Music Lyrics Bass and Guitar Tabs

 

The Tabs Are Below

Learn To Read Tab
Chords Handbook
Corrections & Additions
Get Official Tab
Weezer tabs @ 911Tabs

Weezer - Fall Together

Album: Maladroit

Tabbed by: Evil Adam

- Email: KurtCobain38@hotmail.com

- AIM : xEvilAdam

 

 

[This was created with TabIt for Windows version 1.58]

 

 

**Notes with ( )s around them mean theyre played softer, usually a hammer-on or pull-off**

 

=============================================================================

 

Intro/Verse (Palm mute the parts underlined with --PM--)

 

 

Riff 1

E :----------------|----------------|

B :----------------|----------------|

G :------------2---|----------------|

D :4---4-4-----2---|----2-2-2---3---|

A :4---4-4-0-2-0---|----2-2-2---3---|

E :2---2-2---------|----0-0-0---1---|

--PM--- ----PM---

 

Riff 2

E :----------------|----------------|----------------|----------------|

B :----------------|----------------|----------------|----------------|

G :----------------|----2---*---2---|----------------|----------------|

D :*---4---*---4---|*---2---*---2---|*---2---*---2---|*---4---*---4---|

A :*---4---*---4---|*---0---*---0---|*---2---*---2---|*---4---*---4---|

E :*---2---*---2---|*---------------|*---0---*---0---|*---2---*---2---|

 

=============================================================================

 

Chorus

 

E :----------------|----------------|----------------|----------------|

B :----------------|----------------|----------------|----------------|

G :7---7---7---7---|7---7---7---7---|2---2---2---2---|2---2---2---2---|

D :7---7---7---7---|7---7---7---7---|2---2---2---2---|2---2---2---2---|

A :5---5---5---5---|5---5---5---5---|0---0---0---0---|0---0---0---0---|

E :----------------|----------------|----------------|----------------|

 

E :----------------|----------------|----------------|----------------|

B :----------------|----------------|----------------|----------------|

G :6---6---6---6---|6---6---6---6---|----------------|----------------|

D :6---6---6---6---|6---6---6---6---|4---4---4---4---|4---4---4---4---|

A :4---4---4---4---|4---4---4---4---|4---4---4---4---|4---4---4---4---|

E :----------------|----------------|2---2---2---2---|2---2---2---2---|

 

=============================================================================

 

Bridge

 

E :----------------|----------------|----------------|----------------|

B :----------------|----------------|----------------|----------------|

G :----------------|----------------|----------------|----7-------7---|

D :2-4-4-2-4-4-2-4-|4-2-7---4-2-7---|2-4-4-2-4-4-2-4-|4-2-7---4-2-7---|

A :2-4-4-2-4-4-2-4-|4-2-7---4-2-7---|2-4-4-2-4-4-2-4-|4-2-5---4-2-5---|

E :0-2-2-0-2-2-0-2-|2-0-5---2-0-5---|0-2-2-0-2-2-0-2-|2-0-----2-0-----|

 

=============================================================================

 

Solo (first guitar plays riffs from verse)

 

E :----14---------12-|---12-------------------|-----------------------|

B :------------------|14----14-12-14-12-10-12-|10----10------12-10----|

G :------------------|------------------------|---11----11-9-------11-|

D :*-----------------|------------------------|-----------------------|

A :*-----------------|------------------------|-----------------------|

E :*-----------------|------------------------|-----------------------|

 

E :----------------------|-----------------14^-14^-|

B :12-10----12-10---10---|12^-(14)-----------------|

G :------11------------9-|-------------------------|

D :----------------------|-------------------------|

A :----------------------|-------------------------|

E :----------------------|-------------------------|

 

E :14^---12----16---14-16-|14-12-14-16-12-14-14^-14^-|

B :---------14------------|--------------------------|

G :-----------------------|--------------------------|

D :-----------------------|--------------------------|

A :-----------------------|--------------------------|

E :-----------------------|--------------------------|

 

E :14^-14^-14^-14^-17-14-14-h12-|14^-14^-14^-14^-14^-14-14-12-|

B :-----------------------------|-----------------------------|

G :-----------------------------|-----------------------------|

D :-----------------------------|-----------------------------|

A :-----------------------------|-----------------------------|

E :-----------------------------|-----------------------------|

 

E :--12-12-12-12-12-12-16-|--16-16-16-16-16-16-17-|------------*---|

B :--------------------17-|--17-17-17-17-17-17-19-|------------*---|

G :-----------------------|-----------------------|----------------|

D :-----------------------|-----------------------|----------------|

A :-----------------------|-----------------------|----------------|

E :-----------------------|-----------------------|----------------|

 

=============================================================================

 

Outro

 

E :----------------|----------------|----------------|----------------|

B :----------------|----------------|----------------|----------------|

G :------------2---|----------------|----------------|----------------|

D :4---4-4-----2---|----2-2-3-------|*---2-2-3-------|*---2-2-3-------|

A :4---4-4-0-2-0---|----2-2-3-------|*---2-2-3-------|*---2-2-3-------|

E :2---2-2---------|----0-0-1-------|*---0-0-1-------|*---0-0-1-------|

 

E :----------------|

B :----------------|

G :----------------|

D :*---2-2--*------|

A :*---2-2--*------|

E :*---0-0--*------|

 

Return to my to my Weezer tabs page

The Tablature is Copyright its respective owners.

Sign Up For My Newsletter
Subscribe | Unsubscribe

Site Map | Disclaimer | Privacy Policy | Media Kit | Submissions/Corrections

Website © 2000-2014 mattsmusicpage.com. All rights reserved.

Legal & DMCA: Matt's Music Page has been providing lyrics and tabs in a legal way, paying royalties each year to a few organizations. Then, all lyrics and tabs were removed from the site. Now, there's a new owner to the site, which purchased it August 26, 2014, and he is in negotiation to obtain licensing from BMI at the moment. If you have a specific DMCA request -- please do not hesitate to contact me via the contact button on top. I will do my very best to keep this site fully legal.

Get our toolbar!

 

3 ROLLING STONES TICKET STUBS~VINTAGE 1994 VOODOO LOUNGE TOUR~GIANTS STADIUM
$39.0
3 ROLLING STONES TICKET STUBS~VINTAGE 1994 VOODOO LOUNGE TOUR~GIANTS STADIUM picture


ROLLING STONES CIGARETTE Case / credit card holder GREATEST ROCK BAND Est. 1962
$12.99
ROLLING STONES CIGARETTE Case / credit card holder GREATEST ROCK BAND Est. 1962 picture


OLD LARGE HISTORIC PHOTO OF THE ROLLING STONES, MICK JAGGER etc c1962
$7.33
OLD LARGE HISTORIC PHOTO OF THE ROLLING STONES, MICK JAGGER etc c1962 picture


Rolling Stones Let It Bleed 300 Piece Double-Sided Puzzle Album Cover
$14.99
Rolling Stones Let It Bleed 300 Piece Double-Sided Puzzle Album Cover  picture


***Original Harley Budweiser "1994 Rolling Stones Voodoo Lounge Poster Sign***
$10.0
***Original Harley Budweiser