Your One-Stop Source For
Music Lyrics
Bass and Guitar Tabs
and More...
Music Lyrics Bass and Guitar Tabs

 

The Tabs Are Below

Learn To Read Tab
Chords Handbook
Corrections & Additions
Get Official Tab
Weezer tabs @ 911Tabs

 

Weezer

Falling For You

 

 

 

*Falling For You*

 

Transcribed by Tyler Nylund

Tuning: 1/2 step down

 

intro

E-------------------------------------------------------------------------------------------------

B---------------------------------------------------------------------------------------------------

G--------------------------------------6h8-----9----------------------------------------------

D---------6-----7-----9-----6-------------------------6-----6-----------------------------------

A---7--------------------------------------------------------------------9-----7-----9----7---

E------------------------------------------------------------------------------------------------------

 

E--------------------------------------------------------------------------------------------

B---------------------------------------------------------------------------------------------

G------------------------4-----6-----4-----6^8-----6^8------6^8------6^8--------

D----------------------------------------------------------------------------------------------

A---7-----9-----6----------------------------------------------------------------------------

E-----------------------------------------------------------------------------------------------

 

G# G# G# C#m F#m

holy cow i think i've got one here

B G#m

now just what am i supposed to do

C#m F#m

i've got a number of irrational fears

B E E E

that i'd like to share with you

C#m F#m

first there's rules about goats like me

B G#m E E E

hanging around with chicks like you

C#m F#m G#

but i do like you and another one

 

you say like too much

G#m G#m G#m A A A

I'm shaking at your touch

B B B E E E E

i like you way too much

B B B B D G C C C

my baby i'm afraid i'm falling for you

G#m G#m G#m A A A B B B E E E E

i'd do about anything to get the hell out alive

B B B B B B B E E D D G G AA

or maybe i would rather settle down with you

 

E--------------------------------------------------------------------------------------------

B---------------------------------------------------------------------------------------------

G-------------------------------------4-----6-----7-----------------------------------------------

D---------4-----5-----7-----4--------------------------4----4-----2-----0-----2-----0---------

A---5--------------------------------------------------------------------------------------------

E-----------------------------------------------------------------------------------------------

 

E--------------------------------------------------------------------------------------------

B---------------------------------------------------------------------------------------------

G----------------------------------------------------------------------------------------------

D----------------------2-----4-----2-----4-----6-----4-----8-----8-----6----------------

A---0-----2------------------------------------------------------------------------9-----------

E----------------4-------------------------------------------------------------------------------

 

holy moley baby wouldn't you know it

 

just as i was bustin' loose

 

i've got a goal to live my rock star part

 

get fat and old with you

 

'cause i'm a burning a candle

in your gentle month

teaching me to lick a little bit kinder

and i do like you you're the lucky one

no i'm the lucky one

i'm shaking at your touch

i like you way too much

my baby i'm afraid i'm falling for you

i'd do about anything to get the hell out alive

or maybe i would rather settle down with you

 

E--------------------------------------------------------------------------------------------

B---------------------------------------------------------------------------------------------

G------------------------------------4-----6-----6-----7-------------------------------------------

D---------4-----5-----7-----4--------------------------------4-----4---------------------------------

A---5-------------------------------------------------------------------------7-----5-----7-----5----

E-----------------------------------------------------------------------------------------------

 

E--------------------------------------------------------------------------------------------

B---------------------------------------------------------------------------------------------

G----------------------------------------------------------9-----11-----11----------------

D----------------------7-s-9-----7-----10-----9------------------------------------------

A---5-----7-----4----------------------------------------------------------------------------------

E-----------------------------------------------------------------------------------------------

 

E--------------------------------------------------------------------------------------------

B------------------------------------------D12-----D10-s-D15----------------------

G---11-h-12-----9-----9-s-7-----------------------------------------------------------

D----------------------------------------------------------------------------------------------

A-----------------------------------------------------------------------------------------------

E-----------------------------------------------------------------------------------------------

 

E---14-----14-----12-----12-----10-------------10-------------------------------------

B------------------------------------------------12-------------12-s-10-----8-----10-----8--------

G----------------------------------------------------------------------------------------------

D----------------------------------------------------------------------------------------------

A-----------------------------------------------------------------------------------------------

E-----------------------------------------------------------------------------------------------

 

E--------------------------------------17-h-19-h-22------22^24-r-22-----20-----19-------------

B--------------------15-----17--------------------------------------------------------------------

G---14-s-16-----------------------------------------------------------------------------------------

D----------------------------------------------------------------------------------------------

A-----------------------------------------------------------------------------------------------

E-----------------------------------------------------------------------------------------------

 

E------------------------------20-----19-----22----------------------------------------------------

B------------19-----20--------------------------------22-^24-r-22-----20-----22-----20-----

G---21-------------------------------------------------------------------------------------------

D----------------------------------------------------------------------------------------------

A-----------------------------------------------------------------------------------------------

E-----------------------------------------------------------------------------------------------

 

 

Em Am D Bm

G G

holy sweet god damn you left your cello in the basement

Em C Am

i need my hand to bow the stars

D Bm G G G

and tried to play a tune

Em Am

i can't believe how bad a soft kiss to you

D Bm G G

what could you possibly see in a little freak called me

Em Am

but i do like you and you like me too

Bm

i'm ready let's do it baby

Bm Bm Bm C C C

I'm shaking at your touch

D D D G G G

i like you way too much

D F A# D#

my baby i'm afraid i'm falling for you

Bm Bm Bm C C C D D D G G G

i'd do about anything to get the hell out alive

D D D D D D D G C A# D#

or maybe i would rather settle down with you

 

down, with you (oh)

 

s-slide

h-hammer on

^-bend

r-release bend

D-double pick

 

Return to my to my Weezer tabs page

The Tablature is Copyright its respective owners.

Sign Up For My Newsletter
Subscribe | Unsubscribe

Site Map | Disclaimer | Privacy Policy | Media Kit | Submissions/Corrections

Website © 2000-2014 mattsmusicpage.com. All rights reserved.

Legal & DMCA: Matt's Music Page has been providing lyrics and tabs in a legal way, paying royalties each year to a few organizations. Then, all lyrics and tabs were removed from the site. Now, there's a new owner to the site, which purchased it August 26, 2014, and he is in negotiation to obtain licensing from BMI at the moment. If you have a specific DMCA request -- please do not hesitate to contact me via the contact button on top. I will do my very best to keep this site fully legal.

Get our toolbar!