Your One-Stop Source For
Music Lyrics
Bass and Guitar Tabs
and More...
Music Lyrics Bass and Guitar Tabs

 

The Tabs Are Below

Learn To Read Tab
Chords Handbook
Corrections & Additions
Get Official Tab
Weezer tabs @ 911Tabs

Tabbed by Charles Benagh

 

 

Equipment: It's pretty straightforward - no effects, just guitar --> amp

Sounds awesome with a strat through a Mesa/Boogie Mark IIC+

 

 

***Alternate Tuning: [Eb, Ab, Db, Gb, Bb, Eb]

 

 

Legend: p - pull off

h - hammer on

^ - bend note

/ or \ - slide

x# - palm mute

 

 

 

Intro (bridge pickup)

 

 

eb-|--------------|

Bb-|--------------|

Gb-|--4---4--4-4--|

Db-|--4---4--4-2--| x 4 times

Ab-|--2---2--2-2--|

Eb-|-----------0--|

 

 

 

Verse (mostly palm muted) x 2 times

*Let the last chord of each measure ring out

*1st ending

eb-|----------------|----------------|----------------|-------------------|

Bb-|----------------|----------------|----------------|-------------------|

Gb-|-x4---x4--x4-4--|-x4---x4--x4-4--|----------------|-x4--x4------------|

Db-|-x4---x4--x4-2--|-x4---x4--x4-2--|-x4---x4--x4-4--|-x4--x4--/4-4------|

Ab-|-x2---x2--x2-2--|-x2---x2--x2-2--|-x4---x4--x4-4--|-x2--x2-------6-4--|

Eb-|-------------0--|-------------0--|-x2---x2--x2-2--|-------------------|

 

 

*2nd ending

|-------------------|

|-------5------5----|

|--4----4---4--4----|

|--4----2---4--2----|

|--2--------2-------|

|-------------------|

 

 

Chorus x 2 times

 

 

eb-|-------------|--------------------|---------------|-------------------|

Bb-|-------------|--------------------|---------------|-------------------|

Gb-|------4--4---|--------------------|-------4---4---|-------------------|

Db-|--2---4--4---|--4---4--4-4-4-4-4--|--2----4---4---|--4---4--4-4-4-4-4-|

Ab-|--2---2--2---|--4---4--4-4-4-4-4--|--2----2---2---|--4---4--4-4-4-4-4-|

Eb-|--0----------|--2---2--2-2-2-2-2--|--0------------|--2---2--2-2-2-2-2-|

 

 

*2nd guitar *2nd guitar (1st time only)

|--6h7p6p4-----------| |--------------------|

|----------7-4-------| |-2h4-2h4--2h4-2-----|

|--------------6-4-6-| |----------------4-4-|

|--------------------| |--------------------|

|--------------------| |--------------------|

|--------------------| |--------------------|

 

 

Bridge

 

 

eb-|--------------|--17p14p12--17p14p12-|-17p14-14--14p12-----|

Bb-|--------------|---------------------|-----------------15--|

Gb-|--------------|---------------------|---------------------|

Db-|--5--5--5--5--|---------------------|---------------------| intro

Ab-|--5--5--5--5--|---------------------|---------------------|

Eb-|--3--3--3--3--|---------------------|---------------------|

 

 

 

Solo

(switch to neck pickup, or possibly use a fuzz pedal)

eb-|---------------------------------------|------------------------------|

Bb-|--/12p10----10----10-------------------|------------------------------|

Gb-|---------11----11----11---9p7-9p7------|-9p7---7-----------------7h9--|

Db-|----------------------------------9p7--|-----9---9p7-9-------7h9------|

Ab-|---------------------------------------|-----------------7h9----------|

Eb-|---------------------------------------|------------------------------|

 

 

eb-|-----9----------------11--9--|-9---8--8--/12--11--11--9---9----17--16-|

Bb-|-----10^--------------12--10-|-10--9--9--/13--12--12--10--10---17--16-|

Gb-|-/11-----11-9-9-8-8----------|----------------------------------------|

Db-|-----------------------------|----------------------------------------|

Ab-|-----------------------------|----------------------------------------|

Eb-|-----------------------------|----------------------------------------|

 

 

eb-|-16--16-17-16-14-16-17-16-14----14-16-17-16-14-19\7--7---7--7\-|

Bb-|-----------------------------17-------------------7--7---7--7\-|

Gb-|---------------------------------------------------------------|

Db-|---------------------------------------------------------------| chorus

Ab-|---------------------------------------------------------------|

Eb-|---------------------------------------------------------------|

 

 

Outro

eb-|------------------------|

Bb-|--5-----5-----5--5------|

Gb-|--4--4--4--4--4--4--4\--|

Db-|--2--4--2--4--2--2--4\--|

Ab-|-----2-----2--------2\--|

Eb-|------------------------|

 

 

 

Song pattern:

Intro - 4x

Verse - 2x

Chorus - 2x

Intro - 2x

Verse - 2x

Chorus - 2x

Bridge

Intro - 2x

Solo

Chorus - 2x

Bridge

Intro - 3x

Outro

 

 

Return to my to my Weezer tabs page

The Tablature is Copyright its respective owners.

Sign Up For My Newsletter
Subscribe | Unsubscribe

Site Map | Disclaimer | Privacy Policy | Media Kit | Submissions/Corrections

Website © 2000-2014 mattsmusicpage.com. All rights reserved.

Legal & DMCA: Matt's Music Page has been providing lyrics and tabs in a legal way, paying royalties each year to a few organizations. Then, all lyrics and tabs were removed from the site. Now, there's a new owner to the site, which purchased it August 26, 2014, and he is in negotiation to obtain licensing from BMI at the moment. If you have a specific DMCA request -- please do not hesitate to contact me via the contact button on top. I will do my very best to keep this site fully legal.

Get our toolbar!