Your One-Stop Source For
Music Lyrics
Bass and Guitar Tabs
and More...
Music Lyrics Bass and Guitar Tabs

 

The Tabs Are Below

Learn To Read Tab
Chords Handbook
Corrections & Additions
Get Official Tab
Weezer tabs @ 911Tabs

Song:December(BBC version)

Author:Weezer(Rivers Cuomo)

Transcribed by:Kjartan Kjartansson

Album:Candidate for Maladroit

 

The majority of the song is just simple pickin up and down the following

chords except for the chorus which is strummed. The chorus is über-distorted

but the rest is clean electric. The "|" marks that follow the cords is just

my lame attempt to indicate the duration of each chord (in the intro and

verse each is played for one measure but 2 measures in the bridge.)

 

Intro: G |C |G |C |

 

Verse: G |C |Am |D |

 

Bridge: Bm | |Em | |Am | |D | |

 

Chorus: C | | | |G | | | |D | |G |C |

 

The little thingy they do at the end of the bridge:

 

e---------------------------------------

B----------------12-13-13-13-13-12------

G-12-12-12-12-14-------------------14-12

D---------------------------------------

A---------------------------------------

E---------------------------------------

 

Solo:

 

e-------------------------------------------------------------------12---------------------------

B----------------------------------------------------------------------15-12---------------------

G-12-14-12-14b16----12-14-14p12h14p12----------------12-14-12-14b16----------14p12h14p12---------

D----------------14-------------------14-14-12-12-14-------------------------------------14-14-12

A------------------------------------------------------------------------------------------------

E------------------------------------------------------------------------------------------------

 

Return to my to my Weezer tabs page

The Tablature is Copyright its respective owners.

Sign Up For My Newsletter
Subscribe | Unsubscribe

Site Map | Disclaimer | Privacy Policy | Media Kit | Submissions/Corrections

Website © 2000-2014 mattsmusicpage.com. All rights reserved.

Legal & DMCA: Matt's Music Page has been providing lyrics and tabs in a legal way, paying royalties each year to a few organizations. Then, all lyrics and tabs were removed from the site. Now, there's a new owner to the site, which purchased it August 26, 2014, and he is in negotiation to obtain licensing from BMI at the moment. If you have a specific DMCA request -- please do not hesitate to contact me via the contact button on top. I will do my very best to keep this site fully legal.

Get our toolbar!

 

BRAND NEW KEY OF C HOHNER MINI HARMONICA HARP KEYRING KEYCHAIN KEY RING CHAIN
$8.21
BRAND NEW KEY OF C HOHNER MINI HARMONICA HARP KEYRING KEYCHAIN KEY RING CHAIN picture


RISING SONS BAND *2X3 FRIDGE MAGNET* VOCALS GUITAR MANDOLIN DOBRO HARMONICA SONG
$3.99
RISING SONS BAND *2X3 FRIDGE MAGNET* VOCALS GUITAR MANDOLIN DOBRO HARMONICA SONG picture


Vtg Christmas Angel Baby Girl W Harmonica Boy W Book SET OF 2 W GOLD WINGS
$125.0
Vtg Christmas Angel Baby Girl W Harmonica Boy W Book SET OF 2 W GOLD WINGS  picture


Beautiful Hand Carved Jewelry Trinket Jewelry Box Harmonica Case Bone And Brass
$14.5
Beautiful Hand Carved Jewelry Trinket Jewelry Box Harmonica Case Bone And Brass picture


BRAND NEW* HOHNER BOB DYLAN SIGNATURE LIMITED EDITION HARMONICA COLLECTORS ITEM
$140.19
BRAND NEW* HOHNER BOB DYLAN SIGNATURE LIMITED EDITION HARMONICA COLLECTORS ITEM picture