Your One-Stop Source For
Music Lyrics
Bass and Guitar Tabs
and More...
Music Lyrics Bass and Guitar Tabs

 

The Tabs Are Below

Learn To Read Tab
Chords Handbook
Corrections & Additions
Get Official Tab
Weezer tabs @ 911Tabs

Crab - Weezer

The Green Album

Tabbed by George Cooper

e-mail: alfonzo7@hotmail.com

AIM: GeorgeRA97

http://www.mp3.com/loveapple

 

Guitar 1 - Standard tuning (EADGBE)

Guitar 2 - Standard tuning

 

 

 

Intro:

 

Guitar 1 *flange

E-----------------------------------------------------------------

B-----------------------------------------------------------------

G-5-5-5-5-5-5-5-5---------------------------------2-2-2-2-2-2-2-2-

D-5-5-5-5-5-5-5-5-2-2-2-2-2-2-2-2-4-4-4-4-4-4-4-4-2-2-2-2-2-2-2-2-

A-3-3-3-3-3-3-3-3-2-2-2-2-2-2-2-2-5-5-5-5-5-5-5-5-0-0-0-0-0-0-0-0-

E-----------------0-0-0-0-0-0-0-0-5-5-5-5-5-5-5-5-----------------

 

Guitar 2 *with wah pedal

E-----------------------------------------------------------------

B-----------------------------------------------------------------

G-5-5-5-5-5-5-5-4-4-4-4-4-4-4-4-4-7-7-7-7-7-7-7-5-5-5-5-5-5-5-5-5-

D-----------------------------------------------------------------

A----------------------------------------------------------------

E-----------------------------------------------------------------

 

 

Guitar 1

E---------------------------------------------------------------

B---------------------------------------------------------------

G---------------------------------------------------------0-1-2-

D-3-3-3-3-3-3-3-3-4-4-4-4-4-4-4-4-2-2-2-2-2-2-2-2-2-0-1-2-------

A-3-3-3-3-3-3-3-3-5-5-5-5-5-5-5-5-2-2-2-2-2-2-2-2-2-------------

E-1-1-1-1-1-1-1-1-5-5-5-5-5-5-5-5-0-0-0-0-0-0-0-0-0-------------

 

Guitar 2 *with wah pedal

E---------------------------------------------------------------

B---------------------------------------------------------------

G-5-5-5-5-5-5-5-5-5-5-5-5-5-7-7-4-4-4-4-4-4-4-4-4-4-------------

D-7-7-7-7-7-7-7-7-7-7-7-7-7-7-7-6-6-6-6-6-6-6-6-6-6-------------

A---------------------------------------------------------------

E---------------------------------------------------------------

 

 

Verse:

 

Guitar 1

E-------------------------------------------------------------------------------------------------

B-------------------------------------------------------------------------------------------------

G-2-2-2-2-----------------------------------------5-5-5-5-5-5-5-5---------------------------------

D-2-2-2-2-3-3-3-3-4-4-4-4-2-2-2-2-3-3-3-3-3-3-3-3-5-5-5-5-5-5-5-5-3-3-3-3-3-3-3-3-3-2-2-2-2-2-2-2-

A-0-0-0-0-3-3-3-3-5-5-5-5-2-2-2-2-3-3-3-3-3-3-3-3-3-3-3-3-3-3-3-3-3-3-3-3-3-3-3-3-3-2-2-2-2-2-2-2-

E---------1-1-1-1-5-5-5-5-0-0-0-0-1-1-1-1-1-1-1-1-----------------1-1-1-1-1-1-1-1-1-0-0-0-0-0-0-0-

 

 

E-----------------------------------------------------------------

B-----------------------------------------------------------------

G---------5-5-5-5-----------------5-5-5-5-5-5-5-5-5-5-5-5-5-5-5-5-

D-3-3-3-3-5-5-5-5-3-3-3-3-5-5-5-5-5-5-5-5-5-5-5-5-5-5-5-5-5-5-5-5- [repeat

once]

A-3-3-3-3-3-3-3-3-3-3-3-3-5-5-5-5-3-3-3-3-3-3-3-3-3-3-3-3-3-3-3-3-

E-1-1-1-1---------1-1-1-1-3-3-3-3---------------------------------

 

 

 

 

Chorus:

 

Guitar 1

E-----------------------------------------------------------------

B-----------------------------------------------------------------

G-5-5-5-5-5-5-5-5---------------------------------2-2-2-2-2-2-2-2-

D-5-5-5-5-5-5-5-5-2-2-2-2-2-2-2-2-4-4-4-4-4-4-4-4-2-2-2-2-2-2-2-2-

A-3-3-3-3-3-3-3-3-2-2-2-2-2-2-2-2-5-5-5-5-5-5-5-5-0-0-0-0-0-0-0-0-

E-----------------0-0-0-0-0-0-0-0-5-5-5-5-5-5-5-5-----------------

 

 

E---------------------------------------------------------------

B---------------------------------------------------------------

G---------------------------------------------------------0-1-2-

D-3-3-3-3-3-3-3-3-4-4-4-4-4-4-4-4-2-2-2-2-2-2-2-2-2-0-1-2-------

A-3-3-3-3-3-3-3-3-5-5-5-5-5-5-5-5-2-2-2-2-2-2-2-2-2-------------

E-1-1-1-1-1-1-1-1-5-5-5-5-5-5-5-5-0-0-0-0-0-0-0-0-0-------------

 

 

 

 

Solo:

[Guitar 1 plays verse]

 

Guitar 2

E-----------------------------------------------------------

B---------------------------------------5-3h5r3-1-----------

G-/5--2---0-2---5--2---0-2--2-0h2r0-----------------/2-0----

D-------2------------2--------------3--------------------3--

A-----------------------------------------------------------

E-----------------------------------------------------------

 

 

E---------------------3------------------

B--5~~~~~~-5-3-1-3-5----3-5-3-1--1~~~~~~-

G----------------------------------------

D----------------------------------------

A----------------------------------------

E----------------------------------------

 

 

After solo, play chorus once and verse once

 

 

 

Ending:

 

Guitar 1

E-----------------------------------------------

B-----------------------------------------------

G---------5-5-5-5-----------------5~~~~~~-------

D-3-3-3-3-5-5-5-5-3-3-3-3-5-5-5-5-5~~~~~~-------

A-3-3-3-3-3-3-3-3-3-3-3-3-5-5-5-5-3~~~~~~-------

E-1-1-1-1---------1-1-1-1-1-1-1-1---------------

 

Guitar 2

E-----------------3-----------------------------

B-5---3-1-3-5---------3-5-3-1-----1~~~~~--(13)--

G-----------------------------------------------

D-----------------------------------------------

A-----------------------------------------------

E-----------------------------------------------

 

Return to my to my Weezer tabs page

The Tablature is Copyright its respective owners.

Sign Up For My Newsletter
Subscribe | Unsubscribe

Site Map | Disclaimer | Privacy Policy | Media Kit | Submissions/Corrections

Website © 2000-2014 mattsmusicpage.com. All rights reserved.

Legal & DMCA: Matt's Music Page has been providing lyrics and tabs in a legal way, paying royalties each year to a few organizations. Then, all lyrics and tabs were removed from the site. Now, there's a new owner to the site, which purchased it August 26, 2014, and he is in negotiation to obtain licensing from BMI at the moment. If you have a specific DMCA request -- please do not hesitate to contact me via the contact button on top. I will do my very best to keep this site fully legal.

Get our toolbar!