Your One-Stop Source For
Music Lyrics
Bass and Guitar Tabs
and More...
Music Lyrics Bass and Guitar Tabs

 

The Tabs Are Below

Learn To Read Tab
Chords Handbook
Corrections & Additions
Get Official Tab
Weezer tabs @ 911Tabs

From: marc@destow.de (Marc Schnell)

 

Burndt Jamb by Weezer

===========

 

Standard Tuning

 

Intro:

======

 

E----4--2--------|--5-4------|

B----2--2--------|--3-3------|

G----2--2--------|--4-4------|

D----------------|-----------|

A----------------|-----------|

E----------------|-----------|

 

Verse:

======

 

E(4)(5)(4)(5)(7)(7)-9--4|-----------| Listen to the record for the rhythym.

B-2--3--2--3--5--7--7--0|-----------|

G-2--2--2--2--4--7--7--1|-----------|

D-2--4--2--4--6--7--7--x|-----------|

A-0--2--0--2--4--5--9--2|-----------|

E-------------------7--0|-----------|

 

"DooDiDooDoo, DooDiDooDoo"

 

Hard Part: (Note: Bass note appears below)

==========

 

E--------------------|----------------------|-----------------------|

B--------------------|----------------------|-----------------------|

G---------------5-7~9|----------------5-7~9-|----------------5-7~9--|

D-7-7-7-5-7-5-7------|--3-3-7-5-7-5-7-------|--5-5-7-5-7-5-7--------|

A-7-7----------------|--3-3-----------------|--5-5------------------|

E-5-5----------------|--1-1-----------------|--3-3------------------|

 

Solo:

=====

 

E-----4--------------|

B---2---2------------|

G-2-------~6-6b*-6-4-|

D--------------------|

A--------------------|

E--------------------|

*bend up a 1/2

 

 

Return to my to my Weezer tabs page

The Tablature is Copyright its respective owners.

Sign Up For My Newsletter
Subscribe | Unsubscribe

Site Map | Disclaimer | Privacy Policy | Media Kit | Submissions/Corrections

Website © 2000-2014 mattsmusicpage.com. All rights reserved.

Legal & DMCA: Matt's Music Page has been providing lyrics and tabs in a legal way, paying royalties each year to a few organizations. Then, all lyrics and tabs were removed from the site. Now, there's a new owner to the site, which purchased it August 26, 2014, and he is in negotiation to obtain licensing from BMI at the moment. If you have a specific DMCA request -- please do not hesitate to contact me via the contact button on top. I will do my very best to keep this site fully legal.

Get our toolbar!

 

BRAND NEW KEY OF C HOHNER MINI HARMONICA HARP KEYRING KEYCHAIN KEY RING CHAIN
$8.21
BRAND NEW KEY OF C HOHNER MINI HARMONICA HARP KEYRING KEYCHAIN KEY RING CHAIN picture


RISING SONS BAND *2X3 FRIDGE MAGNET* VOCALS GUITAR MANDOLIN DOBRO HARMONICA SONG
$3.99
RISING SONS BAND *2X3 FRIDGE MAGNET* VOCALS GUITAR MANDOLIN DOBRO HARMONICA SONG picture


Vtg Christmas Angel Baby Girl W Harmonica Boy W Book SET OF 2 W GOLD WINGS
$125.0
Vtg Christmas Angel Baby Girl W Harmonica Boy W Book SET OF 2 W GOLD WINGS  picture


Beautiful Hand Carved Jewelry Trinket Jewelry Box Harmonica Case Bone And Brass
$14.5
Beautiful Hand Carved Jewelry Trinket Jewelry Box Harmonica Case Bone And Brass picture


BRAND NEW* HOHNER BOB DYLAN SIGNATURE LIMITED EDITION HARMONICA COLLECTORS ITEM
$140.19
BRAND NEW* HOHNER BOB DYLAN SIGNATURE LIMITED EDITION HARMONICA COLLECTORS ITEM picture