Your One-Stop Source For
Music Lyrics
Bass and Guitar Tabs
and More...
Music Lyrics Bass and Guitar Tabs

 

The Tabs Are Below

Learn To Read Tab
Chords Handbook
Corrections & Additions
Get Official Tab
Weezer tabs @ 911Tabs

 

Weezer

Buddy Holly

1/2 Step Down

 

 

4)Buddy Holly

 

F# G#

What's with these homies dissin' my girl?

A e -----------

Why do they gotta front? -----------------> B -2h3p2h3p2-

F# G# G -----------

What did we ever do to these guys

A (B)

That made them so violent?

 

PRECHORUS

D/A E F#

Woo-hoo, but you know I'm yours

D/A E F#

Woo-hoo, and I know you're mine

D/A Dm/A

Woo-hoo, and that's for all time

 

CHORUS

A D/A E/B

Woo-ee-oo I look just like Buddy Holly

A D/A E/B

Oh-oh, and you're Mary Tyler Moore

F# D/A E/B A

I don't care what they say about us anyway

A D/A E/B A A A A E A A A A

I don't care 'bout that

 

Don't you ever fear, I'm always near

I know that you need help

Your tongue is twisted, your eyes are slit

You need a guardian

 

Prechorus

Chorus

 

Interlude

A A E F# E F#

Bang! Bang! A knock on the door

A A A B C# B A F#

another big bang and you're down on the floor

A A E F# E F#

Oh no! What do we do?

A A A B C# B A

Don't look now but I lost my shoe

A A A E F# E F#

I can't run and I can't kick

A A A A B C# B A F#

What's the matter babe are you feeling sick?

A A A A A A E F# E F#

What's a matter, what's a matter, what's a matter you?

A A A A B C# D E D E F# A G# F# A

What's a matter babe, are you feeling blue? Oh-oh

 

A G# F# A

e -----------------------------------------------------------------------

B 7-7-9-9--10-10--12--12--12\10-10---------------------------------------

G ----------------------------------------14h16-14-16b-16-14-------------

D ----------------------------------14h16--------------------------------

A -----------------------------------------------------------------------

E -----------------------------------------------------------------------

 

A

---------------------------------------------------17----17-19-19b-19-17--

------------------------------------------------------18----------------18

------14h16-14-17b-17--------14h16-14-16b-16b-16b-------------------------

14h16------------------14b16----------------------------------------------

--------------------------------------------------------------------------

--------------------------------------------------------------------------

 

Chorus

 

A D/A E/B A

I don't care 'bout that

 

Ending-- A A A E F# E F#

 

 

Tabbed by TNitz303@aol.com

 

Return to my to my Weezer tabs page

The Tablature is Copyright its respective owners.

Sign Up For My Newsletter
Subscribe | Unsubscribe

Site Map | Disclaimer | Privacy Policy | Media Kit | Submissions/Corrections

Website © 2000-2014 mattsmusicpage.com. All rights reserved.

Legal & DMCA: Matt's Music Page has been providing lyrics and tabs in a legal way, paying royalties each year to a few organizations. Then, all lyrics and tabs were removed from the site. Now, there's a new owner to the site, which purchased it August 26, 2014, and he is in negotiation to obtain licensing from BMI at the moment. If you have a specific DMCA request -- please do not hesitate to contact me via the contact button on top. I will do my very best to keep this site fully legal.

Get our toolbar!