Your One-Stop Source For
Music Lyrics
Bass and Guitar Tabs
and More...
Music Lyrics Bass and Guitar Tabs

 

The Tabs Are Below

Learn To Read Tab
Chords Handbook
Corrections & Additions
Get Official Tab
Weezer tabs @ 911Tabs

TITLE: Take Control (based on demo recording)

ARTIST: Weezer

TABBED BY: weezer4life

 

INTRO:

G|-----------------------------------------------------------------------------------|

x2

D|-----------------------------------------------------------------------------------|

A|------------------------------2-------------------------------/4-2-4-2-4-2---------|

E|-0/4-4-2-4-2-4--2-4-2-4-2-4-2---4--4-4-2-4-2-4--2-4-2-4-2-4-2----------------------|

 

VERSE:

|--------------------------------| x4

|--------------------------------|

|----------------------------2---|

|-4-4-2-4-2-4--2-4-2-4-2-4-2---4-|

 

CHORUS:

|-----------------------------------------------------------------------------------|

|-----------------------------------------------------------------------------------|

|-22222222-44444444-22222222-44444444-------------------22222222--------------------|

|-------------------------------------44444444-22222222----------22222222-----------|

 

VERSE:

|--------------------------------| x4

|--------------------------------|

|----------------------------2---|

|-4-4-2-4-2-4--2-4-2-4-2-4-2---4-|

 

CHORUS:

|-----------------------------------------------------------------------------------|

|-----------------------------------------------------------------------------------|

|-22222222-44444444-22222222-44444444-------------------22222222--------------------|

|-------------------------------------44444444-22222222----------22222222-----------|

 

|-----------------------------------------------------------------------------------|

|-----------------------------------------------------------------------------------|

|------------------------------2-2-2-2-2--------------------------------------------|

|-0-0-0-0-0-0-0-0-0-0-0-0-0-0------------2-2-2-2-2----------------------------------|

 

|--------------------------------| x2

|--------------------------------|

|----------------------------2---|

|-4-4-2-4-2-4--2-4-2-4-2-4-2---4-|

 

BRIDGE/SOLO:

|--------------------------------| x4

|--------------------------------|

|----------------------------2---|

|-4-4-2-4-2-4--2-4-2-4-2-4-2---4-|

 

CHORUS:

|-----------------------------------------------------------------------------------|

|-----------------------------------------------------------------------------------|

|-22222222-44444444-22222222-44444444-------------------22222222--------------------|

|-------------------------------------44444444-22222222----------22222222-----------|

 

|-----------------------------------------------------------------------------------|

|-----------------------------------------------------------------------------------|

|------------------------------2-2-2-2-2--------------------------------------------|

|-0-0-0-0-0-0-0-0-0-0-0-0-0-0------------2-2-2-2-2----------------------------------|

 

OUTRO:

|--------------------------------| x4

|--------------------------------|

|----------------------------2---|

|-4-4-2-4-2-4--2-4-2-4-2-4-2---4-|

 

 

Any comments, questions, compliments, criticisms, or damnations email me at:

chico@thekillingtons.net

 

 

Return to my to my Weezer bass tabs page

The Tablature is Copyright its respective owners.

Sign Up For My Newsletter
Subscribe | Unsubscribe

Site Map | Disclaimer | Privacy Policy | Media Kit | Submissions/Corrections

Website © 2000-2014 mattsmusicpage.com. All rights reserved.

Legal & DMCA: Matt's Music Page has been providing lyrics and tabs in a legal way, paying royalties each year to a few organizations. Then, all lyrics and tabs were removed from the site. Now, there's a new owner to the site, which purchased it August 26, 2014, and he is in negotiation to obtain licensing from BMI at the moment. If you have a specific DMCA request -- please do not hesitate to contact me via the contact button on top. I will do my very best to keep this site fully legal.

Get our toolbar!