Your One-Stop Source For
Music Lyrics
Bass and Guitar Tabs
and More...
Music Lyrics Bass and Guitar Tabs

 

The Tabs Are Below

Learn To Read Tab
Chords Handbook
Corrections & Additions
Get Official Tab
Weezer tabs @ 911Tabs

 

"Surf Wax America"

by Weezer, from their self-titled debut.

Tuning: Tune to Eb (Eb, Ab, Db, Gb).

 

Gb|----------------------------------------------| Bass comes in after

Db|----------------------------------------------| intro and plays two

Ab|--5-5-5-7-7-5--------5-5-5-7-7-5--------------| bars of the verse.

Eb|--------------7-7-3--------------7-7-3-3-3-7--|

 

|-----------------------------------|

|-----------------------------------| Verse.

|--5-5-5-5-7-7-7-5------------------| Play 4x.

|------------------7-7-7-3-3-3-3-3--|

 

|------------------------------------------

|------------------------------------------

|------------------------------------------

|--8-8-8-8-8-8-8-8-10-10-10-10-10-10-10-10-

 

------------------------------------------|

------------------------------------------| Chorus,

-7-7-7-7-7-7-7-7-10-10-10-10-10-10-10-10--| played 2x.

------------------------------------------|

 

While the intro is played |----------------|

again, Matt plays the roots |----------------|

of each chord: |---------7--10--|

|--8--10---------|

 

|-----------------------------------|

Play verse four times, |-----------------------------------|

then the chorus four times, |----------3-3-3-3------------------|

followed by the bridge: |--5-5-5-5---------3-3-3-3-3-3-3-3--|

Played eight times. "All along the undertow..."

 

The slow harmony part is just the roots of the chorus played out,

and it's followed by another four bars of the chorus.

 

|-----------------------------------|

|-----------------------------------| This "outro" is played four times,

|--3-3-3-3-3-3-2-2-------------2-2--| But you end on a solitary Gb note.

|------------------3-3-3-3-3-3------|

 

Thank you.

Patrick Killingsworth

thx.1138@mailcity.com

I don't surf, I just play the bass.

 

Return to my to my Weezer bass tabs page

The Tablature is Copyright its respective owners.

Sign Up For My Newsletter
Subscribe | Unsubscribe

Site Map | Disclaimer | Privacy Policy | Media Kit | Submissions/Corrections

Website © 2000-2014 mattsmusicpage.com. All rights reserved.

Legal & DMCA: Matt's Music Page has been providing lyrics and tabs in a legal way, paying royalties each year to a few organizations. Then, all lyrics and tabs were removed from the site. Now, there's a new owner to the site, which purchased it August 26, 2014, and he is in negotiation to obtain licensing from BMI at the moment. If you have a specific DMCA request -- please do not hesitate to contact me via the contact button on top. I will do my very best to keep this site fully legal.

Get our toolbar!

 

Hard Rock Pin Las Vegas 4th of july red white and blue guitar
$5.0
Hard Rock Pin Las Vegas 4th of july red white and blue guitar picture


Hard Rock Pin Hollywood Fl Bell Girl with dice luggage and guitar
$5.0
Hard Rock Pin Hollywood Fl Bell Girl with dice luggage and guitar picture


Hard Rock Pin Las Vegas King of Clubs Guitar rare only 3 lines of info on back
$5.0
Hard Rock Pin Las Vegas King of Clubs Guitar rare only 3 lines of info on back picture


Hard Rock Pin Edmonton guitar pin
$5.0
Hard Rock Pin Edmonton guitar pin picture


Lladro Guitar Boy #4614 - Beautiful Piece of Lladro
$109.0
Lladro Guitar Boy #4614 - Beautiful Piece of Lladro picture