Your One-Stop Source For
Music Lyrics
Bass and Guitar Tabs
and More...
Music Lyrics Bass and Guitar Tabs

 

The Tabs Are Below

Learn To Read Tab
Chords Handbook
Corrections & Additions
Get Official Tab
Weezer tabs @ 911Tabs

Weezer - O Girlfriend -bass tab

from: the Green Album

 

Tabbed by Henry Mai

corrections and comments welcome

hmai18@thotmail.com

*********************************************************

 

Tuning: Drop D

 

/=slide up

\=slide down

 

Intro:

G|------------------------------------------------------------------------|

D|------------------------------------------------------------------------|

A|-5-5-555--5-5-55--5-5-555--5-5-555--------------------------------------|

D|-----------------------------------5-5-555--5-5-555--0-5555555555555555-|

 

Verse:

I miss you...

G|------------------------------------|

D|------------------------------------|

A|-0-0--000--5-5-444--2-2-222---------|

D|----------------------------2-2-222-|

 

 

Chorus:

Oh, girlfriend...

G|--------------------------------------------------------------------|

D|--------------------------------------------------------------------|

A|---------4-4-444---------4-4-444--5-5-554--2-2-222------------------|

D|-4-4-444---------4-4-444---------------------------5-5-5550-5-5-555-|

 

 

Verse:

In your arms...

G|------------------------------------|

D|------------------------------------|

A|-0-0--000--5-5-444--2-2-222---------|

D|----------------------------2-2-222-|

 

Chorus:

Oh, girlfriend...

G|--------------------------------------------------------------------|

D|--------------------------------------------------------------------|

A|---------4-4-444---------4-4-444--5-5-554--2-2-222------------------|

D|-4-4-444---------4-4-444---------------------------5-5-5550-5-5-555-|

 

Bridge:

Feeling fancies...

G|----------------------------------------------------------------------------------------------|

D|----------------------------------------------------------------------------------------------|

A|-55555555-55555555-55555555-55555555----------------------------------------------------------|

D|-------------------------------------55555555-55555555-55555555-17/17/17/17/17/17/17/17-0/12\-|

 

Guitar Solo (Same as verse)

G|------------------------------------|

D|------------------------------------|

A|-0-0--000--5-5-444--2-2-222---------|

D|----------------------------2-2-222-|

 

Chorus:

Oh, girlfriend...

G|--------------------------------------------------------------------|

D|--------------------------------------------------------------------|

A|---------4-4-444---------4-4-444--5-5-554--2-2-222------------------|

D|-4-4-444---------4-4-444---------------------------5-5-5550-5-5-555-|

 

Outro: In your arms...

G|------------------------------------|

D|------------------------------------|

A|-0-0--000--5-5-444--2-2-222---------|

D|----------------------------2-2-222-|

 

 

G|----------------------------------------|

D|----------------------------------------|

A|-0-0--000--5-5-444--22222222------------|

D|----------------------------222222222-7-|

 

 

 

Return to my to my Weezer bass tabs page

The Tablature is Copyright its respective owners.

Sign Up For My Newsletter
Subscribe | Unsubscribe

Site Map | Disclaimer | Privacy Policy | Media Kit | Submissions/Corrections

Website © 2000-2014 mattsmusicpage.com. All rights reserved.

Legal & DMCA: Matt's Music Page has been providing lyrics and tabs in a legal way, paying royalties each year to a few organizations. Then, all lyrics and tabs were removed from the site. Now, there's a new owner to the site, which purchased it August 26, 2014, and he is in negotiation to obtain licensing from BMI at the moment. If you have a specific DMCA request -- please do not hesitate to contact me via the contact button on top. I will do my very best to keep this site fully legal.

Get our toolbar!