Your One-Stop Source For
Music Lyrics
Bass and Guitar Tabs
and More...
Music Lyrics Bass and Guitar Tabs

 

The Tabs Are Below

Learn To Read Tab
Chords Handbook
Corrections & Additions
Get Official Tab
Weezer tabs @ 911Tabs

Weezer: Knock-down Drag-out - Bass Tab

from: The Green Album

 

Tabbed by: Henry Mai

corrections, comments are welcome

hmai18@hotmail.com

**************************************************************

Tuning: Drop D

 

/=slide up

 

Intro: Listen to the CD for the timing and syncopation

Lead guitar hits 3 notes, then you're in with:

G|-----------------------------------------------|

D|-----------------------------------------------|

A|---------------------33-333/15-15151515--------|

D|-666-333-888-555-------------------------------|

 

Verse

Any day now you'll call me up on the phone...

G|-----------------------------------------------|

D|-----------------------------------------------|

A|-33333333-----------------33333333-------------|

D|---------33333333-55555555---------------------|

 

Pre-chorus

It's all that I can do right now...

G|-------------------------------------------------------------------------|

D|-------------------------------------------------------------------------|

A|-------------------------------------------55555555----------------------|

D|-2222222-33333333-5555555-66666666-77777777--------55555555/171717171717-|

 

Chorus

Take no prisoners...

G|-----------------------------------------------|

D|-----------------------------------------------|

A|-33333333-----------------33333333-------------|

D|---------33333333-55555555---------------------|

 

Pre-chorus

It's all that I can do right now...

G|-------------------------------------------------------------------------|

D|-------------------------------------------------------------------------|

A|-------------------------------------------55555555----------------------|

D|-2222222-33333333-5555555-66666666-77777777--------55555555/171717171717-|

 

Intro riff again

Say you love.....me now

G|-----------------------------------------------|

D|-----------------------------------------------|

A|---------------------33-333/15-15151515--------|

D|-666-333-888-555-------------------------------|

 

Guitar solo: SAME AS VERSE/CHORUS

G|-----------------------------------------------|

D|-----------------------------------------------|

A|-33333333-----------------33333333-------------|

D|---------33333333-55555555---------------------|

 

Pre-chorus

It's all that I can do right now...

G|-------------------------------------------------------------------------|

D|-------------------------------------------------------------------------|

A|-------------------------------------------55555555----------------------|

D|-2222222-33333333-5555555-66666666-77777777--------55555555/171717171717-|

 

Chorus

Take no prisoners...

G|-----------------------------------------------|

D|-----------------------------------------------|

A|-33333333-----------------33333333-------------|

D|---------33333333-55555555---------------------|

 

Outro:

That we're waging...

G|----------------------------------------|

D|---------33333333-55555555---22-33-55---|

A|-33333333-----------------33----------3-|

D|----------------------------------------|

 

 

Return to my to my Weezer bass tabs page

The Tablature is Copyright its respective owners.

Sign Up For My Newsletter
Subscribe | Unsubscribe

Site Map | Disclaimer | Privacy Policy | Media Kit | Submissions/Corrections

Website © 2000-2014 mattsmusicpage.com. All rights reserved.

Legal & DMCA: Matt's Music Page has been providing lyrics and tabs in a legal way, paying royalties each year to a few organizations. Then, all lyrics and tabs were removed from the site. Now, there's a new owner to the site, which purchased it August 26, 2014, and he is in negotiation to obtain licensing from BMI at the moment. If you have a specific DMCA request -- please do not hesitate to contact me via the contact button on top. I will do my very best to keep this site fully legal.

Get our toolbar!